  0
SECTION
  2
HEADER
  9
$ACADVER
  1
AC1015
  9
$ACADMAINTVER
 70
     6
  9
$DWGCODEPAGE
  3
ANSI_1252
  9
$INSBASE
 10
0.0
 20
0.0
 30
0.0
  9
$EXTMIN
 10
0.0
 20
0.0
 30
0.0
  9
$EXTMAX
 10
8400.0
 20
5940.0
 30
0.0
  9
$LIMMIN
 10
0.0
 20
0.0
  9
$LIMMAX
 10
8400.0
 20
5940.0
  9
$ORTHOMODE
 70
     0
  9
$REGENMODE
 70
     1
  9
$FILLMODE
 70
     1
  9
$QTEXTMODE
 70
     0
  9
$MIRRTEXT
 70
     1
  9
$LTSCALE
 40
1.0
  9
$ATTMODE
 70
     1
  9
$TEXTSIZE
 40
3.8805555556
  9
$TRACEWID
 40
1.0
  9
$TEXTSTYLE
  7
Standard
  9
$CLAYER
  8
0
  9
$CELTYPE
  6
ByLayer
  9
$CECOLOR
 62
   256
  9
$CELTSCALE
 40
1.0
  9
$DISPSILH
 70
     0
  9
$DIMSCALE
 40
1.0
  9
$DIMASZ
 40
5.0
  9
$DIMEXO
 40
1.0
  9
$DIMDLI
 40
3.75
  9
$DIMRND
 40
0.0
  9
$DIMDLE
 40
0.0
  9
$DIMEXE
 40
1.0
  9
$DIMTP
 40
0.0
  9
$DIMTM
 40
0.0
  9
$DIMTXT
 40
3.8805555556
  9
$DIMCEN
 40
2.5
  9
$DIMTSZ
 40
0.0
  9
$DIMTOL
 70
     0
  9
$DIMLIM
 70
     0
  9
$DIMTIH
 70
     1
  9
$DIMTOH
 70
     1
  9
$DIMSE1
 70
     0
  9
$DIMSE2
 70
     0
  9
$DIMTAD
 70
     1
  9
$DIMZIN
 70
     0
  9
$DIMBLK
  1

  9
$DIMASO
 70
     1
  9
$DIMSHO
 70
     1
  9
$DIMPOST
  1

  9
$DIMAPOST
  1

  9
$DIMALT
 70
     0
  9
$DIMALTD
 70
     3
  9
$DIMALTF
 40
0.0393700787
  9
$DIMLFAC
 40
1.0
  9
$DIMTOFL
 70
     1
  9
$DIMTVP
 40
0.0
  9
$DIMTIX
 70
     0
  9
$DIMSOXD
 70
     0
  9
$DIMSAH
 70
     0
  9
$DIMBLK1
  1

  9
$DIMBLK2
  1

  9
$DIMSTYLE
  2
ISO-25
  9
$DIMCLRD
 70
     0
  9
$DIMCLRE
 70
     0
  9
$DIMCLRT
 70
     0
  9
$DIMTFAC
 40
1.0
  9
$DIMGAP
 40
1.524
  9
$DIMJUST
 70
     0
  9
$DIMSD1
 70
     0
  9
$DIMSD2
 70
     0
  9
$DIMTOLJ
 70
     0
  9
$DIMTZIN
 70
     0
  9
$DIMALTZ
 70
     0
  9
$DIMALTTZ
 70
     0
  9
$DIMUPT
 70
     0
  9
$DIMDEC
 70
     1
  9
$DIMTDEC
 70
     1
  9
$DIMALTU
 70
     2
  9
$DIMALTTD
 70
     3
  9
$DIMTXSTY
  7
Standard
  9
$DIMAUNIT
 70
     0
  9
$DIMADEC
 70
     0
  9
$DIMALTRND
 40
0.0
  9
$DIMAZIN
 70
     0
  9
$DIMDSEP
 70
    44
  9
$DIMATFIT
 70
     3
  9
$DIMFRAC
 70
     0
  9
$DIMLDRBLK
  1

  9
$DIMLUNIT
 70
     2
  9
$DIMLWD
 70
    -2
  9
$DIMLWE
 70
    -2
  9
$DIMTMOVE
 70
     0
  9
$LUNITS
 70
     2
  9
$LUPREC
 70
     3
  9
$SKETCHINC
 40
1.0
  9
$FILLETRAD
 40
10.0
  9
$AUNITS
 70
     0
  9
$AUPREC
 70
     0
  9
$MENU
  1
.
  9
$ELEVATION
 40
0.0
  9
$PELEVATION
 40
0.0
  9
$THICKNESS
 40
0.0
  9
$LIMCHECK
 70
     0
  9
$CHAMFERA
 40
0.0
  9
$CHAMFERB
 40
0.0
  9
$CHAMFERC
 40
0.0
  9
$CHAMFERD
 40
0.0
  9
$SKPOLY
 70
     0
  9
$TDCREATE
 40
2458654.445076609
  9
$TDUCREATE
 40
2458653.945076609
  9
$TDUPDATE
 40
2458654.445078715
  9
$TDUUPDATE
 40
2458653.945078715
  9
$TDINDWG
 40
0.0000000116
  9
$TDUSRTIMER
 40
0.0000000116
  9
$USRTIMER
 70
     1
  9
$ANGBASE
 50
0.0
  9
$ANGDIR
 70
     0
  9
$PDMODE
 70
     0
  9
$PDSIZE
 40
-1.0
  9
$PLINEWID
 40
0.0
  9
$SPLFRAME
 70
     0
  9
$SPLINETYPE
 70
     6
  9
$SPLINESEGS
 70
     8
  9
$HANDSEED
  5
2CA
  9
$SURFTAB1
 70
     6
  9
$SURFTAB2
 70
     6
  9
$SURFTYPE
 70
     6
  9
$SURFU
 70
     6
  9
$SURFV
 70
     6
  9
$UCSBASE
  2

  9
$UCSNAME
  2

  9
$UCSORG
 10
0.0
 20
0.0
 30
0.0
  9
$UCSXDIR
 10
1.0
 20
0.0
 30
0.0
  9
$UCSYDIR
 10
0.0
 20
1.0
 30
0.0
  9
$UCSORTHOREF
  2

  9
$UCSORTHOVIEW
 70
     0
  9
$UCSORGTOP
 10
0.0
 20
0.0
 30
0.0
  9
$UCSORGBOTTOM
 10
0.0
 20
0.0
 30
0.0
  9
$UCSORGLEFT
 10
0.0
 20
0.0
 30
0.0
  9
$UCSORGRIGHT
 10
0.0
 20
0.0
 30
0.0
  9
$UCSORGFRONT
 10
0.0
 20
0.0
 30
0.0
  9
$UCSORGBACK
 10
0.0
 20
0.0
 30
0.0
  9
$PUCSBASE
  2

  9
$PUCSNAME
  2

  9
$PUCSORG
 10
0.0
 20
0.0
 30
0.0
  9
$PUCSXDIR
 10
1.0
 20
0.0
 30
0.0
  9
$PUCSYDIR
 10
0.0
 20
1.0
 30
0.0
  9
$PUCSORTHOREF
  2

  9
$PUCSORTHOVIEW
 70
     0
  9
$PUCSORGTOP
 10
0.0
 20
0.0
 30
0.0
  9
$PUCSORGBOTTOM
 10
0.0
 20
0.0
 30
0.0
  9
$PUCSORGLEFT
 10
0.0
 20
0.0
 30
0.0
  9
$PUCSORGRIGHT
 10
0.0
 20
0.0
 30
0.0
  9
$PUCSORGFRONT
 10
0.0
 20
0.0
 30
0.0
  9
$PUCSORGBACK
 10
0.0
 20
0.0
 30
0.0
  9
$USERI1
 70
     0
  9
$USERI2
 70
     0
  9
$USERI3
 70
     0
  9
$USERI4
 70
     0
  9
$USERI5
 70
     0
  9
$USERR1
 40
0.0
  9
$USERR2
 40
0.0
  9
$USERR3
 40
0.0
  9
$USERR4
 40
0.0
  9
$USERR5
 40
0.0
  9
$WORLDVIEW
 70
     1
  9
$SHADEDGE
 70
     3
  9
$SHADEDIF
 70
    70
  9
$TILEMODE
 70
     1
  9
$MAXACTVP
 70
    64
  9
$PINSBASE
 10
0.0
 20
0.0
 30
0.0
  9
$PLIMCHECK
 70
     0
  9
$PEXTMIN
 10
1.0000000000E+20
 20
1.0000000000E+20
 30
1.0000000000E+20
  9
$PEXTMAX
 10
-1.0000000000E+20
 20
-1.0000000000E+20
 30
-1.0000000000E+20
  9
$PLIMMIN
 10
0.0
 20
0.0
  9
$PLIMMAX
 10
420.0
 20
297.0
  9
$UNITMODE
 70
     0
  9
$VISRETAIN
 70
     1
  9
$PLINEGEN
 70
     0
  9
$PSLTSCALE
 70
     1
  9
$TREEDEPTH
 70
  3020
  9
$CMLSTYLE
  2
Standard
  9
$CMLJUST
 70
     0
  9
$CMLSCALE
 40
20.0
  9
$PROXYGRAPHICS
 70
     1
  9
$MEASUREMENT
 70
     1
  9
$CELWEIGHT
370
    -1
  9
$ENDCAPS
280
     0
  9
$JOINSTYLE
280
     0
  9
$LWDISPLAY
290
     1
  9
$INSUNITS
 70
     4
  9
$HYPERLINKBASE
  1

  9
$STYLESHEET
  1

  9
$XEDIT
290
     1
  9
$CEPSNTYPE
380
     0
  9
$PSTYLEMODE
290
     1
  9
$FINGERPRINTGUID
  2
{80513DBE-CD61-44E6-9B63-48F1A4D7B96B}
  9
$VERSIONGUID
  2
{FAEB1C32-E019-11D5-929B-00C0DF256EC4}
  9
$EXTNAMES
290
     1
  9
$PSVPSCALE
 40
0.0
  9
$OLESTARTUP
290
     0
  0
ENDSEC
  0
SECTION
  2
CLASSES
  0
CLASS
  1
ACDBDICTIONARYWDFLT
  2
AcDbDictionaryWithDefault
  3
ObjectDBX Classes
 90
        0
280
     0
281
     0
  0
CLASS
  1
VISUALSTYLE
  2
AcDbVisualStyle
  3
ObjectDBX Classes
 90
     4095
280
     0
281
     0
  0
CLASS
  1
MATERIAL
  2
AcDbMaterial
  3
ObjectDBX Classes
 90
     1153
280
     0
281
     0
  0
CLASS
  1
SCALE
  2
AcDbScale
  3
ObjectDBX Classes
 90
     1153
280
     0
281
     0
  0
CLASS
  1
TABLESTYLE
  2
AcDbTableStyle
  3
ObjectDBX Classes
 90
     4095
280
     0
281
     0
  0
CLASS
  1
MLEADERSTYLE
  2
AcDbMLeaderStyle
  3
ACDB_MLEADERSTYLE_CLASS
 90
     4095
280
     0
281
     0
  0
CLASS
  1
SUN
  2
AcDbSun
  3
SCENEOE
 90
     1153
280
     0
281
     0
  0
CLASS
  1
ACDBPLACEHOLDER
  2
AcDbPlaceHolder
  3
ObjectDBX Classes
 90
        0
280
     0
281
     0
  0
CLASS
  1
LAYOUT
  2
AcDbLayout
  3
ObjectDBX Classes
 90
        0
280
     0
281
     0
  0
ENDSEC
  0
SECTION
  2
TABLES
  0
TABLE
  2
VPORT
  5
8
330
0
100
AcDbSymbolTable
 70
     1
  0
VPORT
  5
29
330
8
100
AcDbSymbolTableRecord
100
AcDbViewportTableRecord
  2
*Active
 70
     0
 10
0.0
 20
0.0
 11
1.0
 21
1.0
 12
4200.0
 22
2970.0
 13
0.0
 23
0.0
 14
10.0
 24
10.0
 15
10.0
 25
10.0
 16
0.0
 26
0.0
 36
1.0
 17
0.0
 27
0.0
 37
0.0
 40
5940.0
 41
1.4141414141
 42
50.0
 43
0.0
 44
0.0
 50
0.0
 51
0.0
 71
     0
 72
  2000
 73
     1
 74
     3
 75
     0
 76
     0
 77
     0
 78
     0
281
     0
 65
     1
110
0.0
120
0.0
130
0.0
111
1.0
121
0.0
131
0.0
112
0.0
122
1.0
132
0.0
 79
     0
146
0.0
  0
ENDTAB
  0
TABLE
  2
LTYPE
  5
5
330
0
100
AcDbSymbolTable
 70
     6
  0
LTYPE
  5
14
330
5
100
AcDbSymbolTableRecord
100
AcDbLinetypeTableRecord
  2
ByBlock
 70
     0
  3

 72
    65
 73
     0
 40
0.0
  0
LTYPE
  5
15
330
5
100
AcDbSymbolTableRecord
100
AcDbLinetypeTableRecord
  2
ByLayer
 70
     0
  3

 72
    65
 73
     0
 40
0.0
  0
LTYPE
  5
16
330
5
100
AcDbSymbolTableRecord
100
AcDbLinetypeTableRecord
  2
Continuous
 70
     0
  3
Solid line
 72
    65
 73
     0
 40
0.0
  0
LTYPE
  5
6E
330
5
100
AcDbSymbolTableRecord
100
AcDbLinetypeTableRecord
  2
HIDDEN
 70
     0
  3
Hidden __ __ __ __ __ __ __ __ __ __ __ __ __ __
 72
    65
 73
     2
 40
1.905
 49
1.27
 74
     0
 49
-0.635
 74
     0
  0
LTYPE
  5
6F
330
5
100
AcDbSymbolTableRecord
100
AcDbLinetypeTableRecord
  2
PHANTOM
 70
     0
  3
Phantom ______  __  __  ______  __  __  ______
 72
    65
 73
     6
 40
12.7
 49
6.35
 74
     0
 49
-1.27
 74
     0
 49
1.27
 74
     0
 49
-1.27
 74
     0
 49
1.27
 74
     0
 49
-1.27
 74
     0
  0
LTYPE
  5
70
330
5
100
AcDbSymbolTableRecord
100
AcDbLinetypeTableRecord
  2
CENTER
 70
     0
  3
Center ____ _ ____ _ ____ _ ____ _ ____ _ ____
 72
    65
 73
     4
 40
10.16
 49
6.35
 74
     0
 49
-1.27
 74
     0
 49
1.27
 74
     0
 49
-1.27
 74
     0
  0
LTYPE
  5
71
330
5
100
AcDbSymbolTableRecord
100
AcDbLinetypeTableRecord
  2
CENTERX2
 70
     0
  3
Center (2x) ________  __  ________  __  _____
 72
    65
 73
     4
 40
20.32
 49
12.7
 74
     0
 49
-2.54
 74
     0
 49
2.54
 74
     0
 49
-2.54
 74
     0
  0
LTYPE
  5
72
330
5
100
AcDbSymbolTableRecord
100
AcDbLinetypeTableRecord
  2
DOT2
 70
     0
  3
Dot (.5x) ........................................
 72
    65
 73
     2
 40
0.635
 49
0.0
 74
     0
 49
-0.635
 74
     0
  0
ENDTAB
  0
TABLE
  2
LAYER
  5
2
330
0
100
AcDbSymbolTable
 70
     8
  0
LAYER
  5
10
330
2
100
AcDbSymbolTableRecord
100
AcDbLayerTableRecord
  2
0
 70
     0
 62
     7
  6
Continuous
370
    -3
390
F
  0
LAYER
  5
73
330
2
100
AcDbSymbolTableRecord
100
AcDbLayerTableRecord
  2
MODEL
 70
     0
 62
   179
  6
Continuous
370
    -3
390
F
  0
LAYER
  5
74
330
2
100
AcDbSymbolTableRecord
100
AcDbLayerTableRecord
  2
PAGE_LAYOUT
 70
     0
 62
     8
  6
Continuous
370
    -3
390
F
  0
LAYER
  5
75
330
2
100
AcDbSymbolTableRecord
100
AcDbLayerTableRecord
  2
DIMENSIONS
 70
     0
 62
   230
  6
Continuous
370
    -3
390
F
  0
LAYER
  5
76
330
2
100
AcDbSymbolTableRecord
100
AcDbLayerTableRecord
  2
ON_PAGE_NOTES
 70
     0
 62
     8
  6
Continuous
370
    -3
390
F
  0
LAYER
  5
77
330
2
100
AcDbSymbolTableRecord
100
AcDbLayerTableRecord
  2
CENTRE_LINE_MARKS
 70
     0
 62
   138
  6
Continuous
370
    -3
390
F
  0
LAYER
  5
78
330
2
100
AcDbSymbolTableRecord
100
AcDbLayerTableRecord
  2
LOGO
 70
     0
 62
     8
  6
Continuous
370
    30
390
F
  0
LAYER
  5
79
330
2
100
AcDbSymbolTableRecord
100
AcDbLayerTableRecord
  2
OFF_PAGE_NOTES
 70
     0
 62
   230
  6
Continuous
290
     0
370
    -3
390
F
  0
ENDTAB
  0
TABLE
  2
STYLE
  5
3
330
0
100
AcDbSymbolTable
 70
     2
  0
STYLE
  5
11
330
3
100
AcDbSymbolTableRecord
100
AcDbTextStyleTableRecord
  2
Standard
 70
     0
 40
0.0
 41
1.0
 50
0.0
 71
     0
 42
3.8805555556
  3
txt
  4

  0
STYLE
  5
1E1
330
3
100
AcDbSymbolTableRecord
100
AcDbTextStyleTableRecord
  2
SLDTEXTSTYLE0
 70
     0
 40
0.0
 41
0.7
 50
0.0
 71
     0
 42
3.8805555556
  3
TXT
  4

  0
ENDTAB
  0
TABLE
  2
VIEW
  5
6
330
0
100
AcDbSymbolTable
 70
     0
  0
ENDTAB
  0
TABLE
  2
UCS
  5
7
330
0
100
AcDbSymbolTable
 70
     0
  0
ENDTAB
  0
TABLE
  2
APPID
  5
9
330
0
100
AcDbSymbolTable
 70
     1
  0
APPID
  5
12
330
9
100
AcDbSymbolTableRecord
100
AcDbRegAppTableRecord
  2
ACAD
 70
     0
  0
ENDTAB
  0
TABLE
  2
DIMSTYLE
  5
A
330
0
100
AcDbSymbolTable
 70
     1
100
AcDbDimStyleTable
  0
DIMSTYLE
105
27
330
A
100
AcDbSymbolTableRecord
100
AcDbDimStyleTableRecord
  2
ISO-25
 70
     0
 41
2.5
 42
0.625
 43
3.75
 44
1.25
 73
     0
 74
     0
 77
     1
 78
     8
140
2.5
141
2.5
143
0.0393700787
147
0.625
171
     3
172
     1
178
     0
271
     2
272
     2
274
     3
278
    44
283
     0
284
     8
340
11
  0
ENDTAB
  0
TABLE
  2
BLOCK_RECORD
  5
1
330
0
100
AcDbSymbolTable
 70
     2
  0
BLOCK_RECORD
  5
1F
330
1
100
AcDbSymbolTableRecord
100
AcDbBlockTableRecord
  2
*Model_Space
340
22
  0
BLOCK_RECORD
  5
1B
330
1
100
AcDbSymbolTableRecord
100
AcDbBlockTableRecord
  2
*Paper_Space
340
1E
  0
BLOCK_RECORD
  5
23
330
1
100
AcDbSymbolTableRecord
100
AcDbBlockTableRecord
  2
*Paper_Space0
340
26
  0
BLOCK_RECORD
  5
1DE
330
1
100
AcDbSymbolTableRecord
100
AcDbBlockTableRecord
  2
SW_NOTE_0
340
0
102
{BLKREFS
331
1E4
102
}
  0
ENDTAB
  0
ENDSEC
  0
SECTION
  2
BLOCKS
  0
BLOCK
  5
20
330
1F
100
AcDbEntity
  8
0
100
AcDbBlockBegin
  2
*Model_Space
 70
     0
 10
0.0
 20
0.0
 30
0.0
  3
*Model_Space
  1

  0
ENDBLK
  5
21
330
1F
100
AcDbEntity
  8
0
100
AcDbBlockEnd
  0
BLOCK
  5
1C
330
1B
100
AcDbEntity
 67
     1
  8
0
100
AcDbBlockBegin
  2
*Paper_Space
 70
     0
 10
0.0
 20
0.0
 30
0.0
  3
*Paper_Space
  1

  0
ENDBLK
  5
1D
330
1B
100
AcDbEntity
 67
     1
  8
0
100
AcDbBlockEnd
  0
BLOCK
  5
24
330
23
100
AcDbEntity
  8
0
100
AcDbBlockBegin
  2
*Paper_Space0
 70
     0
 10
0.0
 20
0.0
 30
0.0
  3
*Paper_Space0
  1

  0
ENDBLK
  5
25
330
23
100
AcDbEntity
  8
0
100
AcDbBlockEnd
  0
BLOCK
  5
1DF
330
1DE
100
AcDbEntity
  8
0
100
AcDbBlockBegin
  2
SW_NOTE_0
 70
     0
 10
0.0
 20
0.0
 30
0.0
  3
SW_NOTE_0
  1

  0
MTEXT
  5
1E2
330
1DE
100
AcDbEntity
  8
ON_PAGE_NOTES
 62
     0
100
AcDbMText
 10
16.125
 20
5.1562709591
 30
0.0
 40
4.0
 41
0.0
 71
     2
 72
     1
  1
Right Elevation
  7
SLDTEXTSTYLE0
 73
     1
 44
1.0
  0
MTEXT
  5
1E3
330
1DE
100
AcDbEntity
  8
ON_PAGE_NOTES
 62
     0
100
AcDbMText
 10
16.0930533558
 20
-0.2770621473
 30
0.0
 40
4.0
 41
0.0
 71
     2
 72
     1
  1
Scale 1:1
  7
SLDTEXTSTYLE0
 73
     1
 44
1.0
  0
ENDBLK
  5
1E0
330
1DE
100
AcDbEntity
  8
0
100
AcDbBlockEnd
  0
ENDSEC
  0
SECTION
  2
ENTITIES
  0
LINE
  5
7A
330
1F
100
AcDbEntity
  8
0
  6
Continuous
 62
     7
370
    15
100
AcDbLine
 10
1385.1445545043
 20
1137.6287423153
 30
0.0
 11
1393.2814743494
 21
982.3670625341
 31
0.0
  0
LINE
  5
7B
330
1F
100
AcDbEntity
  8
0
  6
Continuous
 62
     7
370
    15
100
AcDbLine
 10
1427.0076346592
 20
982.3670625341
 30
0.0
 11
1435.1445545043
 21
1137.6287423153
 31
0.0
  0
LINE
  5
7C
330
1F
100
AcDbEntity
  8
0
  6
Continuous
 62
     7
370
    15
100
AcDbLine
 10
3085.1445545043
 20
1137.6287423153
 30
0.0
 11
3093.2814743494
 21
982.3670625341
 31
0.0
  0
LINE
  5
7D
330
1F
100
AcDbEntity
  8
0
  6
Continuous
 62
     7
370
    15
100
AcDbLine
 10
3127.0076346592
 20
982.3670625341
 30
0.0
 11
3135.1445545043
 21
1137.6287423153
 31
0.0
  0
ARC
  5
7E
330
1F
100
AcDbEntity
  8
0
  6
Continuous
 62
     7
370
    15
100
AcDbCircle
 10
1398.2746220231
 20
982.6287423153
 30
0.0
 40
5.000000000000269
100
AcDbArc
 50
183.0
 51
270.0
  0
ARC
  5
7F
330
1F
100
AcDbEntity
  8
0
  6
Continuous
 62
     7
370
    15
100
AcDbCircle
 10
1422.0144869854
 20
982.6287423153
 30
0.0
 40
5.000000000000114
100
AcDbArc
 50
270.0
 51
357.0
  0
ARC
  5
80
330
1F
100
AcDbEntity
  8
0
  6
Continuous
 62
     7
370
    15
100
AcDbCircle
 10
3098.2746220231
 20
982.6287423153
 30
0.0
 40
5.000000000000114
100
AcDbArc
 50
183.0
 51
270.0
  0
ARC
  5
81
330
1F
100
AcDbEntity
  8
0
  6
Continuous
 62
     7
370
    15
100
AcDbCircle
 10
3122.0144869854
 20
982.6287423153
 30
0.0
 40
5.000000000000114
100
AcDbArc
 50
270.0
 51
357.0
  0
LWPOLYLINE
  5
82
330
1F
100
AcDbEntity
  8
0
  6
Continuous
 62
     7
370
    15
100
AcDbPolyline
 90
       21
 70
   128
 43
0.0
 10
2376.799696442
 20
1600.2075217286
 10
2376.8102216135
 20
1600.0826351136
 10
2376.6282961244
 20
1598.5725246408
 10
2376.1302623588
 20
1597.0939470011
 10
2375.3390893274
 20
1595.7213089207
 10
2374.2919429166
 20
1594.5015982104
 10
2373.0270660859
 20
1593.4655296587
 10
2371.5832189656
 20
1592.637527548
 10
2370.0024847427
 20
1592.0385215842
 10
2368.3313930768
 20
1591.6846145365
 10
2366.6201424916
 20
1591.5849968972
 10
2364.9206468334
 20
1591.7404379947
 10
2363.2852190284
 20
1592.1423530753
 10
2361.7621088627
 20
1592.7731874872
 10
2360.3928949402
 20
1593.6084999374
 10
2359.2116226726
 20
1594.6195165049
 10
2358.2444003731
 20
1595.7765707626
 10
2357.5109663574
 20
1597.0527914831
 10
2357.0287241017
 20
1598.4264776
 10
2356.8184191511
 20
1599.8788155435
 10
2356.8368969745
 20
1600.1948271811
  0
LWPOLYLINE
  5
83
330
1F
100
AcDbEntity
  8
0
  6
Continuous
 62
     7
370
    15
100
AcDbPolyline
 90
       21
 70
   128
 43
0.0
 10
2173.4663631087
 20
1600.207521728
 10
2173.4768882802
 20
1600.0826351136
 10
2173.2949627911
 20
1598.5725246408
 10
2172.7969290255
 20
1597.0939470011
 10
2172.0057559941
 20
1595.7213089207
 10
2170.9586095833
 20
1594.5015982104
 10
2169.6937327526
 20
1593.4655296587
 10
2168.2498856323
 20
1592.637527548
 10
2166.6691514094
 20
1592.0385215842
 10
2164.9980597434
 20
1591.6846145365
 10
2163.2868091583
 20
1591.5849968972
 10
2161.5873135001
 20
1591.7404379947
 10
2159.951885695
 20
1592.1423530753
 10
2158.4287755293
 20
1592.7731874872
 10
2157.0595616069
 20
1593.6084999374
 10
2155.8782893392
 20
1594.6195165049
 10
2154.9110670398
 20
1595.7765707626
 10
2154.1776330241
 20
1597.0527914831
 10
2153.6953907683
 20
1598.4264776
 10
2153.4850858178
 20
1599.8788155435
 10
2153.5035636411
 20
1600.1948271794
  0
LWPOLYLINE
  5
84
330
1F
100
AcDbEntity
  8
0
  6
Continuous
 62
     7
370
    15
100
AcDbPolyline
 90
       21
 70
   128
 43
0.0
 10
2986.799696442
 20
1600.2075217287
 10
2986.8102216135
 20
1600.0826351136
 10
2986.6282961244
 20
1598.5725246408
 10
2986.1302623588
 20
1597.0939470011
 10
2985.3390893274
 20
1595.7213089207
 10
2984.2919429166
 20
1594.5015982104
 10
2983.0270660859
 20
1593.4655296587
 10
2981.5832189656
 20
1592.637527548
 10
2980.0024847427
 20
1592.0385215842
 10
2978.3313930768
 20
1591.6846145365
 10
2976.6201424916
 20
1591.5849968972
 10
2974.9206468334
 20
1591.7404379947
 10
2973.2852190284
 20
1592.1423530753
 10
2971.7621088627
 20
1592.7731874872
 10
2970.3928949402
 20
1593.6084999374
 10
2969.2116226726
 20
1594.6195165049
 10
2968.2444003731
 20
1595.7765707626
 10
2967.5109663574
 20
1597.0527914831
 10
2967.0287241017
 20
1598.4264776
 10
2966.8184191511
 20
1599.8788155435
 10
2966.8368969745
 20
1600.1948271811
  0
LWPOLYLINE
  5
85
330
1F
100
AcDbEntity
  8
0
  6
Continuous
 62
     7
370
    15
100
AcDbPolyline
 90
       21
 70
   128
 43
0.0
 10
2580.1330297753
 20
1600.2075217286
 10
2580.1435549468
 20
1600.0826351136
 10
2579.9616294578
 20
1598.5725246408
 10
2579.4635956921
 20
1597.0939470011
 10
2578.6724226608
 20
1595.7213089207
 10
2577.6252762499
 20
1594.5015982104
 10
2576.3603994193
 20
1593.4655296587
 10
2574.9165522989
 20
1592.637527548
 10
2573.3358180761
 20
1592.0385215842
 10
2571.6647264101
 20
1591.6846145365
 10
2569.953475825
 20
1591.5849968972
 10
2568.2539801667
 20
1591.7404379947
 10
2566.6185523617
 20
1592.1423530753
 10
2565.095442196
 20
1592.7731874872
 10
2563.7262282735
 20
1593.6084999374
 10
2562.5449560059
 20
1594.6195165049
 10
2561.5777337065
 20
1595.7765707626
 10
2560.8442996907
 20
1597.0527914831
 10
2560.362057435
 20
1598.4264776
 10
2560.1517524844
 20
1599.8788155435
 10
2560.1702303078
 20
1600.1948271811
  0
LWPOLYLINE
  5
86
330
1F
100
AcDbEntity
  8
0
  6
Continuous
 62
     7
370
    15
100
AcDbPolyline
 90
       21
 70
   128
 43
0.0
 10
1970.1330297753
 20
1600.2075217286
 10
1970.1435549468
 20
1600.0826351136
 10
1969.9616294578
 20
1598.5725246408
 10
1969.4635956921
 20
1597.0939470012
 10
1968.6724226608
 20
1595.7213089207
 10
1967.6252762499
 20
1594.5015982104
 10
1966.3603994193
 20
1593.4655296587
 10
1964.9165522989
 20
1592.637527548
 10
1963.3358180761
 20
1592.0385215842
 10
1961.6647264101
 20
1591.6846145365
 10
1959.953475825
 20
1591.5849968972
 10
1958.2539801667
 20
1591.7404379947
 10
1956.6185523617
 20
1592.1423530753
 10
1955.095442196
 20
1592.7731874872
 10
1953.7262282735
 20
1593.6084999374
 10
1952.5449560059
 20
1594.6195165049
 10
1951.5777337065
 20
1595.7765707626
 10
1950.8442996907
 20
1597.0527914831
 10
1950.362057435
 20
1598.4264776
 10
1950.1517524844
 20
1599.8788155435
 10
1950.1702303078
 20
1600.1948271811
  0
LWPOLYLINE
  5
87
330
1F
100
AcDbEntity
  8
0
  6
Continuous
 62
     7
370
    15
100
AcDbPolyline
 90
       21
 70
   128
 43
0.0
 10
2783.4663631087
 20
1600.2075217282
 10
2783.4768882802
 20
1600.0826351136
 10
2783.2949627911
 20
1598.5725246408
 10
2782.7969290255
 20
1597.0939470011
 10
2782.0057559941
 20
1595.7213089207
 10
2780.9586095833
 20
1594.5015982104
 10
2779.6937327526
 20
1593.4655296587
 10
2778.2498856323
 20
1592.637527548
 10
2776.6691514094
 20
1592.0385215842
 10
2774.9980597434
 20
1591.6846145365
 10
2773.2868091583
 20
1591.5849968972
 10
2771.5873135001
 20
1591.7404379947
 10
2769.951885695
 20
1592.1423530753
 10
2768.4287755293
 20
1592.7731874872
 10
2767.0595616069
 20
1593.6084999374
 10
2765.8782893392
 20
1594.6195165049
 10
2764.9110670398
 20
1595.7765707626
 10
2764.1776330241
 20
1597.0527914831
 10
2763.6953907683
 20
1598.4264776
 10
2763.4850858178
 20
1599.8788155435
 10
2763.5035636411
 20
1600.1948271796
  0
LWPOLYLINE
  5
88
330
1F
100
AcDbEntity
  8
0
  6
Continuous
 62
     7
370
    15
100
AcDbPolyline
 90
       21
 70
   128
 43
0.0
 10
1766.7996964421
 20
1600.2075217271
 10
1766.8102216135
 20
1600.0826351136
 10
1766.6282961244
 20
1598.5725246408
 10
1766.1302623588
 20
1597.0939470012
 10
1765.3390893274
 20
1595.7213089207
 10
1764.2919429166
 20
1594.5015982104
 10
1763.0270660859
 20
1593.4655296587
 10
1761.5832189656
 20
1592.637527548
 10
1760.0024847428
 20
1592.0385215842
 10
1758.3313930768
 20
1591.6846145365
 10
1756.6201424916
 20
1591.5849968972
 10
1754.9206468334
 20
1591.7404379947
 10
1753.2852190284
 20
1592.1423530753
 10
1751.7621088627
 20
1592.7731874872
 10
1750.3928949402
 20
1593.6084999374
 10
1749.2116226726
 20
1594.6195165049
 10
1748.2444003731
 20
1595.7765707626
 10
1747.5109663574
 20
1597.0527914831
 10
1747.0287241017
 20
1598.4264776
 10
1746.8184191511
 20
1599.8788155435
 10
1746.8368969743
 20
1600.1948271785
  0
LWPOLYLINE
  5
89
330
1F
100
AcDbEntity
  8
0
  6
Continuous
 62
     7
370
    15
100
AcDbPolyline
 90
       21
 70
   128
 43
0.0
 10
1563.4663631087
 20
1600.2075217288
 10
1563.4768882802
 20
1600.0826351136
 10
1563.2949627911
 20
1598.5725246408
 10
1562.7969290255
 20
1597.0939470011
 10
1562.0057559941
 20
1595.7213089207
 10
1560.9586095833
 20
1594.5015982104
 10
1559.6937327526
 20
1593.4655296587
 10
1558.2498856323
 20
1592.637527548
 10
1556.6691514094
 20
1592.0385215842
 10
1554.9980597434
 20
1591.6846145365
 10
1553.2868091583
 20
1591.5849968972
 10
1551.5873135001
 20
1591.7404379947
 10
1549.951885695
 20
1592.1423530753
 10
1548.4287755293
 20
1592.7731874872
 10
1547.0595616069
 20
1593.6084999374
 10
1545.8782893392
 20
1594.6195165049
 10
1544.9110670398
 20
1595.7765707626
 10
1544.1776330241
 20
1597.0527914831
 10
1543.6953907683
 20
1598.4264776
 10
1543.4850858178
 20
1599.8788155435
 10
1543.5035636412
 20
1600.1948271812
  0
ARC
  5
8A
330
1F
100
AcDbEntity
  8
0
  6
Continuous
 62
     7
370
    15
100
AcDbCircle
 10
1350.1445545043
 20
1784.6688027303
 30
0.0
 40
10.0
100
AcDbArc
 50
90.0
 51
180.0
  0
ARC
  5
8B
330
1F
100
AcDbEntity
  8
0
  6
Continuous
 62
     7
370
    15
100
AcDbCircle
 10
3170.1445545043
 20
1784.6688027303
 30
0.0
 40
10.0
100
AcDbArc
 50
0.0
 51
90.0
  0
LINE
  5
8C
330
1F
100
AcDbEntity
  8
0
  6
Continuous
 62
     7
370
    15
100
AcDbLine
 10
3170.1445545043
 20
1794.6688027303
 30
0.0
 11
1350.1445545043
 21
1794.6688027303
 31
0.0
  0
LINE
  5
8D
330
1F
100
AcDbEntity
  8
0
  6
Continuous
 62
     7
370
    15
100
AcDbLine
 10
3300.1445545043
 20
1137.6287423153
 30
0.0
 11
3300.1445545043
 21
1147.6287423153
 31
0.0
  0
LINE
  5
8E
330
1F
100
AcDbEntity
  8
0
  6
Continuous
 62
     7
370
    15
100
AcDbLine
 10
3310.1445545043
 20
1147.6287423153
 30
0.0
 11
3300.1445545043
 21
1147.6287423153
 31
0.0
  0
ARC
  5
8F
330
1F
100
AcDbEntity
  8
0
  6
Continuous
 62
     7
370
    15
100
AcDbCircle
 10
3300.1445545043
 20
1147.6287423153
 30
0.0
 40
10.0
100
AcDbArc
 50
270.0
 51
0.0
  0
LINE
  5
90
330
1F
100
AcDbEntity
  8
0
  6
Continuous
 62
     7
370
    15
100
AcDbLine
 10
3300.1445545043
 20
1627.6287423153
 30
0.0
 11
3300.1445545043
 21
1637.6287423153
 31
0.0
  0
ARC
  5
91
330
1F
100
AcDbEntity
  8
0
  6
Continuous
 62
     7
370
    15
100
AcDbCircle
 10
3300.1445545043
 20
1627.6287423153
 30
0.0
 40
10.0
100
AcDbArc
 50
0.0
 51
90.0
  0
LINE
  5
92
330
1F
100
AcDbEntity
  8
0
  6
Continuous
 62
     7
370
    15
100
AcDbLine
 10
3310.1445545043
 20
1627.6287423153
 30
0.0
 11
3300.1445545043
 21
1627.6287423153
 31
0.0
  0
LINE
  5
93
330
1F
100
AcDbEntity
  8
0
  6
Continuous
 62
     7
370
    15
100
AcDbLine
 10
3190.1445545043
 20
1627.6287423153
 30
0.0
 11
3180.1445545043
 21
1627.6287423153
 31
0.0
  0
ARC
  5
94
330
1F
100
AcDbEntity
  8
0
  6
Continuous
 62
     7
370
    15
100
AcDbCircle
 10
3190.1445545043
 20
1627.6287423153
 30
0.0
 40
10.0
100
AcDbArc
 50
90.0
 51
180.0
  0
LINE
  5
95
330
1F
100
AcDbEntity
  8
0
  6
Continuous
 62
     7
370
    15
100
AcDbLine
 10
3190.1445545043
 20
1627.6287423153
 30
0.0
 11
3190.1445545043
 21
1637.6287423153
 31
0.0
  0
LINE
  5
96
330
1F
100
AcDbEntity
  8
0
  6
Continuous
 62
     7
370
    15
100
AcDbLine
 10
3300.1445545043
 20
1137.6287423153
 30
0.0
 11
3190.1445545043
 21
1137.6287423153
 31
0.0
  0
LINE
  5
97
330
1F
100
AcDbEntity
  8
0
  6
Continuous
 62
     7
370
    15
100
AcDbLine
 10
3190.1445545043
 20
1137.6287423153
 30
0.0
 11
3190.1445545043
 21
1147.6287423153
 31
0.0
  0
LINE
  5
98
330
1F
100
AcDbEntity
  8
0
  6
Continuous
 62
     7
370
    15
100
AcDbLine
 10
3190.1445545043
 20
1147.6287423153
 30
0.0
 11
3300.1445545043
 21
1147.6287423153
 31
0.0
  0
LINE
  5
99
330
1F
100
AcDbEntity
  8
0
  6
Continuous
 62
     7
370
    15
100
AcDbLine
 10
3190.1445545043
 20
1627.6287423153
 30
0.0
 11
3190.1445545043
 21
1147.6287423153
 31
0.0
  0
LINE
  5
9A
330
1F
100
AcDbEntity
  8
0
  6
Continuous
 62
     7
370
    15
100
AcDbLine
 10
3190.1445545043
 20
1147.6287423153
 30
0.0
 11
3180.1445545043
 21
1147.6287423153
 31
0.0
  0
LINE
  5
9B
330
1F
100
AcDbEntity
  8
0
  6
Continuous
 62
     7
370
    15
100
AcDbLine
 10
3180.1445545043
 20
1147.6287423153
 30
0.0
 11
3180.1445545043
 21
1277.6287423153
 31
0.0
  0
LINE
  5
9C
330
1F
100
AcDbEntity
  8
0
  6
Continuous
 62
     7
370
    15
100
AcDbLine
 10
3180.1445545043
 20
1407.6287423153
 30
0.0
 11
3180.1445545043
 21
1627.6287423153
 31
0.0
  0
LINE
  5
9D
330
1F
100
AcDbEntity
  8
0
  6
Continuous
 62
     7
370
    15
100
AcDbLine
 10
3300.1445545043
 20
1627.6287423153
 30
0.0
 11
3190.1445545043
 21
1627.6287423153
 31
0.0
  0
LINE
  5
9E
330
1F
100
AcDbEntity
  8
0
  6
Continuous
 62
     7
370
    15
100
AcDbLine
 10
3190.1445545043
 20
1637.6287423153
 30
0.0
 11
3300.1445545043
 21
1637.6287423153
 31
0.0
  0
LINE
  5
9F
330
1F
100
AcDbEntity
  8
0
  6
Continuous
 62
     7
370
    15
100
AcDbLine
 10
3300.1445545043
 20
1147.6287423153
 30
0.0
 11
3300.1445545043
 21
1627.6287423153
 31
0.0
  0
LINE
  5
A0
330
1F
100
AcDbEntity
  8
0
  6
Continuous
 62
     7
370
    15
100
AcDbLine
 10
3310.1445545043
 20
1627.6287423153
 30
0.0
 11
3310.1445545043
 21
1147.6287423153
 31
0.0
  0
ARC
  5
A1
330
1F
100
AcDbEntity
  8
0
  6
Continuous
 62
     7
370
    15
100
AcDbCircle
 10
3190.1445545043
 20
1147.6287423153
 30
0.0
 40
10.0
100
AcDbArc
 50
180.0
 51
270.0
  0
LINE
  5
A2
330
1F
100
AcDbEntity
  8
0
  6
Continuous
 62
     7
370
    15
100
AcDbLine
 10
1340.1445545043
 20
1627.6287423153
 30
0.0
 11
1340.1445545043
 21
1407.6287423153
 31
0.0
  0
LINE
  5
A3
330
1F
100
AcDbEntity
  8
0
  6
Continuous
 62
     7
370
    15
100
AcDbLine
 10
1340.1445545043
 20
1277.6287423153
 30
0.0
 11
1340.1445545043
 21
1147.6287423153
 31
0.0
  0
LINE
  5
A4
330
1F
100
AcDbEntity
  8
0
  6
Continuous
 62
     7
370
    15
100
AcDbLine
 10
1340.1445545043
 20
1147.6287423153
 30
0.0
 11
1330.1445545043
 21
1147.6287423153
 31
0.0
  0
LINE
  5
A5
330
1F
100
AcDbEntity
  8
0
  6
Continuous
 62
     7
370
    15
100
AcDbLine
 10
1330.1445545043
 20
1147.6287423153
 30
0.0
 11
1330.1445545043
 21
1627.6287423153
 31
0.0
  0
LINE
  5
A6
330
1F
100
AcDbEntity
  8
0
  6
Continuous
 62
     7
370
    15
100
AcDbLine
 10
1340.1445545043
 20
1627.6287423153
 30
0.0
 11
1330.1445545043
 21
1627.6287423153
 31
0.0
  0
LINE
  5
A7
330
1F
100
AcDbEntity
  8
0
  6
Continuous
 62
     7
370
    15
100
AcDbLine
 10
1220.1445545043
 20
1627.6287423153
 30
0.0
 11
1220.1445545043
 21
1147.6287423153
 31
0.0
  0
LINE
  5
A8
330
1F
100
AcDbEntity
  8
0
  6
Continuous
 62
     7
370
    15
100
AcDbLine
 10
1220.1445545043
 20
1147.6287423153
 30
0.0
 11
1210.1445545043
 21
1147.6287423153
 31
0.0
  0
LINE
  5
A9
330
1F
100
AcDbEntity
  8
0
  6
Continuous
 62
     7
370
    15
100
AcDbLine
 10
1210.1445545043
 20
1147.6287423153
 30
0.0
 11
1210.1445545043
 21
1627.6287423153
 31
0.0
  0
LINE
  5
AA
330
1F
100
AcDbEntity
  8
0
  6
Continuous
 62
     7
370
    15
100
AcDbLine
 10
1220.1445545043
 20
1627.6287423153
 30
0.0
 11
1210.1445545043
 21
1627.6287423153
 31
0.0
  0
ARC
  5
AB
330
1F
100
AcDbEntity
  8
0
  6
Continuous
 62
     7
370
    15
100
AcDbCircle
 10
1220.1445545043
 20
1627.6287423153
 30
0.0
 40
10.0
100
AcDbArc
 50
90.0
 51
180.0
  0
LINE
  5
AC
330
1F
100
AcDbEntity
  8
0
  6
Continuous
 62
     7
370
    15
100
AcDbLine
 10
1220.1445545043
 20
1627.6287423153
 30
0.0
 11
1220.1445545043
 21
1637.6287423153
 31
0.0
  0
LINE
  5
AD
330
1F
100
AcDbEntity
  8
0
  6
Continuous
 62
     7
370
    15
100
AcDbLine
 10
1330.1445545043
 20
1137.6287423153
 30
0.0
 11
1220.1445545043
 21
1137.6287423153
 31
0.0
  0
LINE
  5
AE
330
1F
100
AcDbEntity
  8
0
  6
Continuous
 62
     7
370
    15
100
AcDbLine
 10
1220.1445545043
 20
1137.6287423153
 30
0.0
 11
1220.1445545043
 21
1147.6287423153
 31
0.0
  0
LINE
  5
AF
330
1F
100
AcDbEntity
  8
0
  6
Continuous
 62
     7
370
    15
100
AcDbLine
 10
1220.1445545043
 20
1147.6287423153
 30
0.0
 11
1330.1445545043
 21
1147.6287423153
 31
0.0
  0
LINE
  5
B0
330
1F
100
AcDbEntity
  8
0
  6
Continuous
 62
     7
370
    15
100
AcDbLine
 10
1330.1445545043
 20
1147.6287423153
 30
0.0
 11
1330.1445545043
 21
1137.6287423153
 31
0.0
  0
LINE
  5
B1
330
1F
100
AcDbEntity
  8
0
  6
Continuous
 62
     7
370
    15
100
AcDbLine
 10
1330.1445545043
 20
1627.6287423153
 30
0.0
 11
1220.1445545043
 21
1627.6287423153
 31
0.0
  0
LINE
  5
B2
330
1F
100
AcDbEntity
  8
0
  6
Continuous
 62
     7
370
    15
100
AcDbLine
 10
1330.1445545043
 20
1637.6287423153
 30
0.0
 11
1330.1445545043
 21
1627.6287423153
 31
0.0
  0
ARC
  5
B3
330
1F
100
AcDbEntity
  8
0
  6
Continuous
 62
     7
370
    15
100
AcDbCircle
 10
1330.1445545043
 20
1627.6287423153
 30
0.0
 40
10.00000000000023
100
AcDbArc
 50
0.0
 51
90.0
  0
ARC
  5
B4
330
1F
100
AcDbEntity
  8
0
  6
Continuous
 62
     7
370
    15
100
AcDbCircle
 10
1220.1445545043
 20
1147.6287423153
 30
0.0
 40
10.0
100
AcDbArc
 50
180.0
 51
270.0
  0
LINE
  5
B5
330
1F
100
AcDbEntity
  8
0
  6
Continuous
 62
     7
370
    15
100
AcDbLine
 10
1220.1445545043
 20
1637.6287423153
 30
0.0
 11
1330.1445545043
 21
1637.6287423153
 31
0.0
  0
ARC
  5
B6
330
1F
100
AcDbEntity
  8
0
  6
Continuous
 62
     7
370
    15
100
AcDbCircle
 10
1330.1445545043
 20
1147.6287423153
 30
0.0
 40
10.00000000000023
100
AcDbArc
 50
270.0
 51
0.0
  0
LINE
  5
B7
330
1F
100
AcDbEntity
  8
0
  6
Continuous
 62
     7
370
    15
100
AcDbLine
 10
2260.1445545043
 20
1407.6287423153
 30
0.0
 11
2250.1445545043
 21
1407.6287423153
 31
0.0
  0
LINE
  5
B8
330
1F
100
AcDbEntity
  8
0
  6
Continuous
 62
     7
370
    15
100
AcDbLine
 10
2250.1445545043
 20
1417.6287423153
 30
0.0
 11
2250.1445545043
 21
1407.6287423153
 31
0.0
  0
ARC
  5
B9
330
1F
100
AcDbEntity
  8
0
  6
Continuous
 62
     7
370
    15
100
AcDbCircle
 10
2250.1445545043
 20
1407.6287423153
 30
0.0
 40
10.00000000000045
100
AcDbArc
 50
0.0
 51
90.0
  0
LINE
  5
BA
330
1F
100
AcDbEntity
  8
0
  6
Continuous
 62
     7
370
    15
100
AcDbLine
 10
1350.1445545043
 20
1277.6287423153
 30
0.0
 11
1340.1445545043
 21
1277.6287423153
 31
0.0
  0
LINE
  5
BB
330
1F
100
AcDbEntity
  8
0
  6
Continuous
 62
     7
370
    15
100
AcDbLine
 10
1350.1445545043
 20
1277.6287423153
 30
0.0
 11
1350.1445545043
 21
1267.6287423153
 31
0.0
  0
ARC
  5
BC
330
1F
100
AcDbEntity
  8
0
  6
Continuous
 62
     7
370
    15
100
AcDbCircle
 10
1350.1445545043
 20
1277.6287423153
 30
0.0
 40
10.0
100
AcDbArc
 50
180.0
 51
270.0
  0
LINE
  5
BD
330
1F
100
AcDbEntity
  8
0
  6
Continuous
 62
     7
370
    15
100
AcDbLine
 10
1350.1445545043
 20
1277.6287423153
 30
0.0
 11
2250.1445545043
 21
1277.6287423153
 31
0.0
  0
LINE
  5
BE
330
1F
100
AcDbEntity
  8
0
  6
Continuous
 62
     7
370
    15
100
AcDbLine
 10
2250.1445545043
 20
1277.6287423153
 30
0.0
 11
2250.1445545043
 21
1267.6287423153
 31
0.0
  0
LINE
  5
BF
330
1F
100
AcDbEntity
  8
0
  6
Continuous
 62
     7
370
    15
100
AcDbLine
 10
2250.1445545043
 20
1267.6287423153
 30
0.0
 11
1350.1445545043
 21
1267.6287423153
 31
0.0
  0
LINE
  5
C0
330
1F
100
AcDbEntity
  8
0
  6
Continuous
 62
     7
370
    15
100
AcDbLine
 10
2260.1445545043
 20
1407.6287423153
 30
0.0
 11
2260.1445545043
 21
1277.6287423153
 31
0.0
  0
LINE
  5
C1
330
1F
100
AcDbEntity
  8
0
  6
Continuous
 62
     7
370
    15
100
AcDbLine
 10
2260.1445545043
 20
1277.6287423153
 30
0.0
 11
2250.1445545043
 21
1277.6287423153
 31
0.0
  0
LINE
  5
C2
330
1F
100
AcDbEntity
  8
0
  6
Continuous
 62
     7
370
    15
100
AcDbLine
 10
2250.1445545043
 20
1277.6287423153
 30
0.0
 11
2250.1445545043
 21
1407.6287423153
 31
0.0
  0
ARC
  5
C3
330
1F
100
AcDbEntity
  8
0
  6
Continuous
 62
     7
370
    15
100
AcDbCircle
 10
2250.1445545043
 20
1277.6287423153
 30
0.0
 40
10.00000000000045
100
AcDbArc
 50
270.0
 51
0.0
  0
LINE
  5
C4
330
1F
100
AcDbEntity
  8
0
  6
Continuous
 62
     7
370
    15
100
AcDbLine
 10
1350.1445545043
 20
1407.6287423153
 30
0.0
 11
1350.1445545043
 21
1277.6287423153
 31
0.0
  0
LINE
  5
C5
330
1F
100
AcDbEntity
  8
0
  6
Continuous
 62
     7
370
    15
100
AcDbLine
 10
2250.1445545043
 20
1407.6287423153
 30
0.0
 11
1350.1445545043
 21
1407.6287423153
 31
0.0
  0
LINE
  5
C6
330
1F
100
AcDbEntity
  8
0
  6
Continuous
 62
     7
370
    15
100
AcDbLine
 10
1350.1445545043
 20
1417.6287423153
 30
0.0
 11
2250.1445545043
 21
1417.6287423153
 31
0.0
  0
LINE
  5
C7
330
1F
100
AcDbEntity
  8
0
  6
Continuous
 62
     7
370
    15
100
AcDbLine
 10
1350.1445545043
 20
1417.6287423153
 30
0.0
 11
1350.1445545043
 21
1407.6287423153
 31
0.0
  0
LINE
  5
C8
330
1F
100
AcDbEntity
  8
0
  6
Continuous
 62
     7
370
    15
100
AcDbLine
 10
1340.1445545043
 20
1277.6287423153
 30
0.0
 11
1340.1445545043
 21
1407.6287423153
 31
0.0
  0
LINE
  5
C9
330
1F
100
AcDbEntity
  8
0
  6
Continuous
 62
     7
370
    15
100
AcDbLine
 10
1350.1445545043
 20
1407.6287423153
 30
0.0
 11
1340.1445545043
 21
1407.6287423153
 31
0.0
  0
ARC
  5
CA
330
1F
100
AcDbEntity
  8
0
  6
Continuous
 62
     7
370
    15
100
AcDbCircle
 10
1350.1445545043
 20
1407.6287423153
 30
0.0
 40
10.00000000000023
100
AcDbArc
 50
90.0
 51
180.0
  0
LINE
  5
CB
330
1F
100
AcDbEntity
  8
0
  6
Continuous
 62
     7
370
    15
100
AcDbLine
 10
3170.1445545043
 20
1147.6287423153
 30
0.0
 11
3170.1445545043
 21
1257.6287423153
 31
0.0
  0
LINE
  5
CC
330
1F
100
AcDbEntity
  8
0
  6
Continuous
 62
     7
370
    15
100
AcDbLine
 10
3170.1445545043
 20
1257.6287423153
 30
0.0
 11
3180.1445545043
 21
1257.6287423153
 31
0.0
  0
LINE
  5
CD
330
1F
100
AcDbEntity
  8
0
  6
Continuous
 62
     7
370
    15
100
AcDbLine
 10
3180.1445545043
 20
1257.6287423153
 30
0.0
 11
3180.1445545043
 21
1147.6287423153
 31
0.0
  0
LINE
  5
CE
330
1F
100
AcDbEntity
  8
0
  6
Continuous
 62
     7
370
    15
100
AcDbLine
 10
3170.1445545043
 20
1147.6287423153
 30
0.0
 11
3180.1445545043
 21
1147.6287423153
 31
0.0
  0
LINE
  5
CF
330
1F
100
AcDbEntity
  8
0
  6
Continuous
 62
     7
370
    15
100
AcDbLine
 10
1340.1445545043
 20
1147.6287423153
 30
0.0
 11
1340.1445545043
 21
1257.6287423153
 31
0.0
  0
LINE
  5
D0
330
1F
100
AcDbEntity
  8
0
  6
Continuous
 62
     7
370
    15
100
AcDbLine
 10
1340.1445545043
 20
1257.6287423153
 30
0.0
 11
1350.1445545043
 21
1257.6287423153
 31
0.0
  0
LINE
  5
D1
330
1F
100
AcDbEntity
  8
0
  6
Continuous
 62
     7
370
    15
100
AcDbLine
 10
1350.1445545043
 20
1257.6287423153
 30
0.0
 11
1350.1445545043
 21
1147.6287423153
 31
0.0
  0
LINE
  5
D2
330
1F
100
AcDbEntity
  8
0
  6
Continuous
 62
     7
370
    15
100
AcDbLine
 10
1340.1445545043
 20
1147.6287423153
 30
0.0
 11
1350.1445545043
 21
1147.6287423153
 31
0.0
  0
ARC
  5
D3
330
1F
100
AcDbEntity
  8
0
  6
Continuous
 62
     7
370
    15
100
AcDbCircle
 10
3170.1445545043
 20
1147.6287423153
 30
0.0
 40
10.0
100
AcDbArc
 50
270.0
 51
0.0
  0
LINE
  5
D4
330
1F
100
AcDbEntity
  8
0
  6
Continuous
 62
     7
370
    15
100
AcDbLine
 10
3170.1445545043
 20
1147.6287423153
 30
0.0
 11
3170.1445545043
 21
1137.6287423153
 31
0.0
  0
LINE
  5
D5
330
1F
100
AcDbEntity
  8
0
  6
Continuous
 62
     7
370
    15
100
AcDbLine
 10
1350.1445545043
 20
1137.6287423153
 30
0.0
 11
1350.1445545043
 21
1147.6287423153
 31
0.0
  0
ARC
  5
D6
330
1F
100
AcDbEntity
  8
0
  6
Continuous
 62
     7
370
    15
100
AcDbCircle
 10
1350.1445545043
 20
1147.6287423153
 30
0.0
 40
10.0
100
AcDbArc
 50
180.0
 51
270.0
  0
LINE
  5
D7
330
1F
100
AcDbEntity
  8
0
  6
Continuous
 62
     7
370
    15
100
AcDbLine
 10
1350.1445545043
 20
1267.6287423153
 30
0.0
 11
1350.1445545043
 21
1257.6287423153
 31
0.0
  0
ARC
  5
D8
330
1F
100
AcDbEntity
  8
0
  6
Continuous
 62
     7
370
    15
100
AcDbCircle
 10
1350.1445545043
 20
1257.6287423153
 30
0.0
 40
10.0
100
AcDbArc
 50
90.0
 51
180.0
  0
LINE
  5
D9
330
1F
100
AcDbEntity
  8
0
  6
Continuous
 62
     7
370
    15
100
AcDbLine
 10
3170.1445545043
 20
1257.6287423153
 30
0.0
 11
1350.1445545043
 21
1257.6287423153
 31
0.0
  0
LINE
  5
DA
330
1F
100
AcDbEntity
  8
0
  6
Continuous
 62
     7
370
    15
100
AcDbLine
 10
2250.1445545043
 20
1267.6287423153
 30
0.0
 11
2270.1445545043
 21
1267.6287423153
 31
0.0
  0
LINE
  5
DB
330
1F
100
AcDbEntity
  8
0
  6
Continuous
 62
     7
370
    15
100
AcDbLine
 10
3170.1445545043
 20
1257.6287423153
 30
0.0
 11
3170.1445545043
 21
1267.6287423153
 31
0.0
  0
LINE
  5
DC
330
1F
100
AcDbEntity
  8
0
  6
Continuous
 62
     7
370
    15
100
AcDbLine
 10
1350.1445545043
 20
1147.6287423153
 30
0.0
 11
3170.1445545043
 21
1147.6287423153
 31
0.0
  0
LINE
  5
DD
330
1F
100
AcDbEntity
  8
0
  6
Continuous
 62
     7
370
    15
100
AcDbLine
 10
3170.1445545043
 20
1137.6287423153
 30
0.0
 11
1350.1445545043
 21
1137.6287423153
 31
0.0
  0
ARC
  5
DE
330
1F
100
AcDbEntity
  8
0
  6
Continuous
 62
     7
370
    15
100
AcDbCircle
 10
3170.1445545043
 20
1257.6287423153
 30
0.0
 40
10.0
100
AcDbArc
 50
0.0
 51
90.0
  0
LINE
  5
DF
330
1F
100
AcDbEntity
  8
0
  6
Continuous
 62
     7
370
    15
100
AcDbLine
 10
1422.0144869854
 20
977.6287423153
 30
0.0
 11
1398.2746225257
 21
977.6287423153
 31
0.0
  0
LINE
  5
E0
330
1F
100
AcDbEntity
  8
0
  6
Continuous
 62
     7
370
    15
100
AcDbLine
 10
3122.0144869854
 20
977.6287423153
 30
0.0
 11
3098.2746225257
 21
977.6287423153
 31
0.0
  0
LINE
  5
E1
330
1F
100
AcDbEntity
  8
0
  6
Continuous
 62
     7
370
    15
100
AcDbLine
 10
1350.1445545043
 20
1419.3884383715
 30
0.0
 11
3170.1445545043
 21
1419.3884383715
 31
0.0
  0
LWPOLYLINE
  5
E2
330
1F
100
AcDbEntity
  8
0
  6
Continuous
 62
     7
370
    15
100
AcDbPolyline
 90
        9
 70
   128
 43
0.0
 10
1350.1445545043
 20
1419.3884383715
 10
1348.1936512841
 20
1419.3183089307
 10
1346.3177201806
 20
1419.1106156434
 10
1344.5888521741
 20
1418.773340046
 10
1343.0734866924
 20
1418.3194434508
 10
1341.8298583812
 20
1417.7663688492
 10
1340.9057591792
 20
1417.1353705881
 10
1340.3367017002
 20
1416.4506975767
 10
1340.1445545043
 20
1415.738661415
  0
LWPOLYLINE
  5
E3
330
1F
100
AcDbEntity
  8
0
  6
Continuous
 62
     7
370
    15
100
AcDbPolyline
 90
        9
 70
   128
 43
0.0
 10
3180.1445545043
 20
1415.738661415
 10
3179.9524073083
 20
1416.4506975767
 10
3179.3833498294
 20
1417.1353705881
 10
3178.4592506273
 20
1417.7663688492
 10
3177.2156223161
 20
1418.3194434508
 10
3175.7002568345
 20
1418.773340046
 10
3173.9713888279
 20
1419.1106156434
 10
3172.0954577244
 20
1419.3183089307
 10
3170.1445545043
 20
1419.3884383715
  0
LINE
  5
E4
330
1F
100
AcDbEntity
  8
0
  6
Continuous
 62
     7
370
    15
100
AcDbLine
 10
3170.1445545043
 20
1419.3884383715
 30
0.0
 11
3170.1445545043
 21
1788.3185796869
 31
0.0
  0
LWPOLYLINE
  5
E5
330
1F
100
AcDbEntity
  8
0
  6
Continuous
 62
     7
370
    15
100
AcDbPolyline
 90
        9
 70
   128
 43
0.0
 10
3180.1445545043
 20
1784.6688027303
 10
3179.9524073083
 20
1785.3808388921
 10
3179.3833498294
 20
1786.0655119034
 10
3178.4592506273
 20
1786.6965101645
 10
3177.2156223161
 20
1787.2495847661
 10
3175.7002568345
 20
1787.7034813614
 10
3173.9713888279
 20
1788.0407569587
 10
3172.0954577244
 20
1788.2484502461
 10
3170.1445545043
 20
1788.3185796869
  0
LINE
  5
E6
330
1F
100
AcDbEntity
  8
0
  6
Continuous
 62
     7
370
    15
100
AcDbLine
 10
3180.1445545043
 20
1784.6688027303
 30
0.0
 11
3180.1445545043
 21
1627.6287423153
 31
0.0
  0
LINE
  5
E7
330
1F
100
AcDbEntity
  8
0
  6
Continuous
 62
     7
370
    15
100
AcDbLine
 10
1350.1445545043
 20
1788.3185796869
 30
0.0
 11
1350.1445545043
 21
1419.3884383715
 31
0.0
  0
LINE
  5
E8
330
1F
100
AcDbEntity
  8
0
  6
Continuous
 62
     7
370
    15
100
AcDbLine
 10
3170.1445545043
 20
1788.3185796869
 30
0.0
 11
1350.1445545043
 21
1788.3185796869
 31
0.0
  0
LWPOLYLINE
  5
E9
330
1F
100
AcDbEntity
  8
0
  6
Continuous
 62
     7
370
    15
100
AcDbPolyline
 90
       48
 70
   128
 43
0.0
 10
1553.4778878376
 20
1622.473834286
 10
1556.1436269451
 20
1622.3076942134
 10
1558.761795875
 20
1621.8122387689
 10
1561.2856733409
 20
1620.9963093668
 10
1563.6702206894
 20
1619.8744662865
 10
1565.8728856168
 20
1618.4667288444
 10
1567.8543615152
 20
1616.7982181486
 10
1569.5792889002
 20
1614.8987088118
 10
1571.0168864017
 20
1612.8020976233
 10
1572.1415000584
 20
1610.5457986593
 10
1572.9330611129
 20
1608.1700756283
 10
1573.3774441394
 20
1605.7173233641
 10
1573.4667191122
 20
1603.2313112889
 10
1573.1992929174
 20
1600.7564023471
 10
1572.5799377817
 20
1598.3367613475
 10
1571.6197061123
 20
1596.0155668409
 10
1570.3357332659
 20
1593.8342405984
 10
1568.7509317685
 20
1591.8317084383
 10
1566.8935824404
 20
1590.0437055946
 10
1564.7968297242
 20
1588.5021390204
 10
1562.4980902219
 20
1587.2345180077
 10
1560.0383849944
 20
1586.2634632834
 10
1557.4616075397
 20
1585.6063033422
 10
1554.8137405125
 20
1585.2747652188
 10
1552.1420351627
 20
1585.2747652188
 10
1549.4941681355
 20
1585.6063033422
 10
1546.9173906808
 20
1586.2634632834
 10
1544.4576854533
 20
1587.2345180077
 10
1542.158945951
 20
1588.5021390204
 10
1540.0621932348
 20
1590.0437055946
 10
1538.2048439067
 20
1591.8317084383
 10
1536.6200424093
 20
1593.8342405984
 10
1535.3360695629
 20
1596.0155668409
 10
1534.3758378935
 20
1598.3367613475
 10
1533.7564827578
 20
1600.7564023471
 10
1533.489056563
 20
1603.2313112889
 10
1533.5783315358
 20
1605.7173233641
 10
1534.0227145623
 20
1608.1700756283
 10
1534.8142756168
 20
1610.5457986593
 10
1535.9388892735
 20
1612.8020976233
 10
1537.3764867751
 20
1614.8987088118
 10
1539.10141416
 20
1616.7982181486
 10
1541.0828900584
 20
1618.4667288444
 10
1543.2855549858
 20
1619.8744662865
 10
1545.6701023343
 20
1620.9963093668
 10
1548.1939798002
 20
1621.8122387689
 10
1550.8121487301
 20
1622.3076942134
 10
1553.4778878376
 20
1622.473834286
  0
LWPOLYLINE
  5
EA
330
1F
100
AcDbEntity
  8
0
  6
Continuous
 62
     7
370
    15
100
AcDbPolyline
 90
       48
 70
   128
 43
0.0
 10
1756.8112211709
 20
1622.473834286
 10
1759.4769602784
 20
1622.3076942134
 10
1762.0951292084
 20
1621.8122387689
 10
1764.6190066742
 20
1620.9963093668
 10
1767.0035540228
 20
1619.8744662865
 10
1769.2062189501
 20
1618.4667288444
 10
1771.1876948485
 20
1616.7982181486
 10
1772.9126222335
 20
1614.8987088118
 10
1774.3502197351
 20
1612.8020976233
 10
1775.4748333918
 20
1610.5457986593
 10
1776.2663944462
 20
1608.1700756283
 10
1776.7107774727
 20
1605.7173233641
 10
1776.8000524455
 20
1603.2313112889
 10
1776.5326262507
 20
1600.7564023471
 10
1775.9132711151
 20
1598.3367613475
 10
1774.9530394456
 20
1596.0155668409
 10
1773.6690665993
 20
1593.8342405984
 10
1772.0842651019
 20
1591.8317084383
 10
1770.2269157737
 20
1590.0437055946
 10
1768.1301630575
 20
1588.5021390204
 10
1765.8314235553
 20
1587.2345180077
 10
1763.3717183277
 20
1586.2634632834
 10
1760.794940873
 20
1585.6063033422
 10
1758.1470738458
 20
1585.2747652188
 10
1755.475368496
 20
1585.2747652188
 10
1752.8275014689
 20
1585.6063033422
 10
1750.2507240141
 20
1586.2634632834
 10
1747.7910187866
 20
1587.2345180077
 10
1745.4922792843
 20
1588.5021390204
 10
1743.3955265682
 20
1590.0437055946
 10
1741.53817724
 20
1591.8317084383
 10
1739.9533757426
 20
1593.8342405984
 10
1738.6694028962
 20
1596.0155668409
 10
1737.7091712268
 20
1598.3367613475
 10
1737.0898160911
 20
1600.7564023471
 10
1736.8223898963
 20
1603.2313112889
 10
1736.9116648692
 20
1605.7173233641
 10
1737.3560478956
 20
1608.1700756283
 10
1738.1476089501
 20
1610.5457986593
 10
1739.2722226068
 20
1612.8020976233
 10
1740.7098201084
 20
1614.8987088118
 10
1742.4347474934
 20
1616.7982181486
 10
1744.4162233917
 20
1618.4667288444
 10
1746.6188883191
 20
1619.8744662865
 10
1749.0034356677
 20
1620.9963093668
 10
1751.5273131335
 20
1621.8122387689
 10
1754.1454820635
 20
1622.3076942134
 10
1756.8112211709
 20
1622.473834286
  0
LWPOLYLINE
  5
EB
330
1F
100
AcDbEntity
  8
0
  6
Continuous
 62
     7
370
    15
100
AcDbPolyline
 90
       48
 70
   128
 43
0.0
 10
1960.1445545043
 20
1622.473834286
 10
1962.8102936117
 20
1622.3076942134
 10
1965.4284625417
 20
1621.8122387689
 10
1967.9523400075
 20
1620.9963093668
 10
1970.3368873561
 20
1619.8744662865
 10
1972.5395522835
 20
1618.4667288444
 10
1974.5210281818
 20
1616.7982181486
 10
1976.2459555668
 20
1614.8987088118
 10
1977.6835530684
 20
1612.8020976233
 10
1978.8081667251
 20
1610.5457986593
 10
1979.5997277796
 20
1608.1700756283
 10
1980.044110806
 20
1605.7173233641
 10
1980.1333857789
 20
1603.2313112889
 10
1979.8659595841
 20
1600.7564023471
 10
1979.2466044484
 20
1598.3367613475
 10
1978.286372779
 20
1596.0155668409
 10
1977.0023999326
 20
1593.8342405984
 10
1975.4175984352
 20
1591.8317084383
 10
1973.5602491071
 20
1590.0437055946
 10
1971.4634963909
 20
1588.5021390204
 10
1969.1647568886
 20
1587.2345180077
 10
1966.7050516611
 20
1586.2634632834
 10
1964.1282742063
 20
1585.6063033422
 10
1961.4804071792
 20
1585.2747652188
 10
1958.8087018294
 20
1585.2747652188
 10
1956.1608348022
 20
1585.6063033422
 10
1953.5840573475
 20
1586.2634632834
 10
1951.1243521199
 20
1587.2345180077
 10
1948.8256126177
 20
1588.5021390204
 10
1946.7288599015
 20
1590.0437055946
 10
1944.8715105733
 20
1591.8317084383
 10
1943.2867090759
 20
1593.8342405984
 10
1942.0027362296
 20
1596.0155668409
 10
1941.0425045601
 20
1598.3367613475
 10
1940.4231494245
 20
1600.7564023471
 10
1940.1557232297
 20
1603.2313112889
 10
1940.2449982025
 20
1605.7173233641
 10
1940.689381229
 20
1608.1700756283
 10
1941.4809422834
 20
1610.5457986593
 10
1942.6055559401
 20
1612.8020976233
 10
1944.0431534417
 20
1614.8987088118
 10
1945.7680808267
 20
1616.7982181486
 10
1947.7495567251
 20
1618.4667288444
 10
1949.9522216524
 20
1619.8744662865
 10
1952.336769001
 20
1620.9963093668
 10
1954.8606464668
 20
1621.8122387689
 10
1957.4788153968
 20
1622.3076942134
 10
1960.1445545043
 20
1622.473834286
  0
LWPOLYLINE
  5
EC
330
1F
100
AcDbEntity
  8
0
  6
Continuous
 62
     7
370
    15
100
AcDbPolyline
 90
       48
 70
   128
 43
0.0
 10
2163.4778878376
 20
1622.473834286
 10
2166.1436269451
 20
1622.3076942134
 10
2168.761795875
 20
1621.8122387689
 10
2171.2856733409
 20
1620.9963093668
 10
2173.6702206894
 20
1619.8744662865
 10
2175.8728856168
 20
1618.4667288444
 10
2177.8543615152
 20
1616.7982181486
 10
2179.5792889002
 20
1614.8987088118
 10
2181.0168864017
 20
1612.8020976233
 10
2182.1415000584
 20
1610.5457986593
 10
2182.9330611129
 20
1608.1700756283
 10
2183.3774441394
 20
1605.7173233641
 10
2183.4667191122
 20
1603.2313112889
 10
2183.1992929174
 20
1600.7564023471
 10
2182.5799377817
 20
1598.3367613475
 10
2181.6197061123
 20
1596.0155668409
 10
2180.3357332659
 20
1593.8342405984
 10
2178.7509317685
 20
1591.8317084383
 10
2176.8935824404
 20
1590.0437055946
 10
2174.7968297242
 20
1588.5021390204
 10
2172.4980902219
 20
1587.2345180077
 10
2170.0383849944
 20
1586.2634632834
 10
2167.4616075397
 20
1585.6063033422
 10
2164.8137405125
 20
1585.2747652188
 10
2162.1420351627
 20
1585.2747652188
 10
2159.4941681355
 20
1585.6063033422
 10
2156.9173906808
 20
1586.2634632834
 10
2154.4576854533
 20
1587.2345180077
 10
2152.158945951
 20
1588.5021390204
 10
2150.0621932348
 20
1590.0437055946
 10
2148.2048439067
 20
1591.8317084383
 10
2146.6200424093
 20
1593.8342405984
 10
2145.3360695629
 20
1596.0155668409
 10
2144.3758378935
 20
1598.3367613475
 10
2143.7564827578
 20
1600.7564023471
 10
2143.489056563
 20
1603.2313112889
 10
2143.5783315358
 20
1605.7173233641
 10
2144.0227145623
 20
1608.1700756283
 10
2144.8142756168
 20
1610.5457986593
 10
2145.9388892735
 20
1612.8020976233
 10
2147.3764867751
 20
1614.8987088118
 10
2149.10141416
 20
1616.7982181486
 10
2151.0828900584
 20
1618.4667288444
 10
2153.2855549858
 20
1619.8744662865
 10
2155.6701023343
 20
1620.9963093668
 10
2158.1939798002
 20
1621.8122387689
 10
2160.8121487301
 20
1622.3076942134
 10
2163.4778878376
 20
1622.473834286
  0
LWPOLYLINE
  5
ED
330
1F
100
AcDbEntity
  8
0
  6
Continuous
 62
     7
370
    15
100
AcDbPolyline
 90
       48
 70
   128
 43
0.0
 10
2366.8112211709
 20
1622.473834286
 10
2369.4769602784
 20
1622.3076942134
 10
2372.0951292084
 20
1621.8122387689
 10
2374.6190066742
 20
1620.9963093668
 10
2377.0035540228
 20
1619.8744662865
 10
2379.2062189501
 20
1618.4667288444
 10
2381.1876948485
 20
1616.7982181486
 10
2382.9126222335
 20
1614.8987088118
 10
2384.3502197351
 20
1612.8020976233
 10
2385.4748333918
 20
1610.5457986593
 10
2386.2663944462
 20
1608.1700756283
 10
2386.7107774727
 20
1605.7173233641
 10
2386.8000524455
 20
1603.2313112889
 10
2386.5326262507
 20
1600.7564023471
 10
2385.9132711151
 20
1598.3367613475
 10
2384.9530394456
 20
1596.0155668409
 10
2383.6690665993
 20
1593.8342405984
 10
2382.0842651019
 20
1591.8317084383
 10
2380.2269157737
 20
1590.0437055946
 10
2378.1301630575
 20
1588.5021390204
 10
2375.8314235553
 20
1587.2345180077
 10
2373.3717183277
 20
1586.2634632834
 10
2370.794940873
 20
1585.6063033422
 10
2368.1470738458
 20
1585.2747652188
 10
2365.475368496
 20
1585.2747652188
 10
2362.8275014689
 20
1585.6063033422
 10
2360.2507240141
 20
1586.2634632834
 10
2357.7910187866
 20
1587.2345180077
 10
2355.4922792843
 20
1588.5021390204
 10
2353.3955265682
 20
1590.0437055946
 10
2351.53817724
 20
1591.8317084383
 10
2349.9533757426
 20
1593.8342405984
 10
2348.6694028962
 20
1596.0155668409
 10
2347.7091712268
 20
1598.3367613475
 10
2347.0898160911
 20
1600.7564023471
 10
2346.8223898963
 20
1603.2313112889
 10
2346.9116648692
 20
1605.7173233641
 10
2347.3560478956
 20
1608.1700756283
 10
2348.1476089501
 20
1610.5457986593
 10
2349.2722226068
 20
1612.8020976233
 10
2350.7098201084
 20
1614.8987088118
 10
2352.4347474934
 20
1616.7982181486
 10
2354.4162233917
 20
1618.4667288444
 10
2356.6188883191
 20
1619.8744662865
 10
2359.0034356677
 20
1620.9963093668
 10
2361.5273131335
 20
1621.8122387689
 10
2364.1454820635
 20
1622.3076942134
 10
2366.8112211709
 20
1622.473834286
  0
LWPOLYLINE
  5
EE
330
1F
100
AcDbEntity
  8
0
  6
Continuous
 62
     7
370
    15
100
AcDbPolyline
 90
       48
 70
   128
 43
0.0
 10
2570.1445545043
 20
1622.473834286
 10
2572.8102936117
 20
1622.3076942134
 10
2575.4284625417
 20
1621.8122387689
 10
2577.9523400075
 20
1620.9963093668
 10
2580.3368873561
 20
1619.8744662865
 10
2582.5395522835
 20
1618.4667288444
 10
2584.5210281818
 20
1616.7982181486
 10
2586.2459555668
 20
1614.8987088118
 10
2587.6835530684
 20
1612.8020976233
 10
2588.8081667251
 20
1610.5457986593
 10
2589.5997277796
 20
1608.1700756283
 10
2590.044110806
 20
1605.7173233641
 10
2590.1333857789
 20
1603.2313112889
 10
2589.8659595841
 20
1600.7564023471
 10
2589.2466044484
 20
1598.3367613475
 10
2588.286372779
 20
1596.0155668409
 10
2587.0023999326
 20
1593.8342405984
 10
2585.4175984352
 20
1591.8317084383
 10
2583.5602491071
 20
1590.0437055946
 10
2581.4634963909
 20
1588.5021390204
 10
2579.1647568886
 20
1587.2345180077
 10
2576.7050516611
 20
1586.2634632834
 10
2574.1282742063
 20
1585.6063033422
 10
2571.4804071792
 20
1585.2747652188
 10
2568.8087018294
 20
1585.2747652188
 10
2566.1608348022
 20
1585.6063033422
 10
2563.5840573475
 20
1586.2634632834
 10
2561.1243521199
 20
1587.2345180077
 10
2558.8256126177
 20
1588.5021390204
 10
2556.7288599015
 20
1590.0437055946
 10
2554.8715105733
 20
1591.8317084383
 10
2553.2867090759
 20
1593.8342405984
 10
2552.0027362296
 20
1596.0155668409
 10
2551.0425045601
 20
1598.3367613475
 10
2550.4231494245
 20
1600.7564023471
 10
2550.1557232297
 20
1603.2313112889
 10
2550.2449982025
 20
1605.7173233641
 10
2550.689381229
 20
1608.1700756283
 10
2551.4809422834
 20
1610.5457986593
 10
2552.6055559401
 20
1612.8020976233
 10
2554.0431534417
 20
1614.8987088118
 10
2555.7680808267
 20
1616.7982181486
 10
2557.7495567251
 20
1618.4667288444
 10
2559.9522216524
 20
1619.8744662865
 10
2562.336769001
 20
1620.9963093668
 10
2564.8606464668
 20
1621.8122387689
 10
2567.4788153968
 20
1622.3076942134
 10
2570.1445545043
 20
1622.473834286
  0
LWPOLYLINE
  5
EF
330
1F
100
AcDbEntity
  8
0
  6
Continuous
 62
     7
370
    15
100
AcDbPolyline
 90
       48
 70
   128
 43
0.0
 10
2773.4778878376
 20
1622.473834286
 10
2776.1436269451
 20
1622.3076942134
 10
2778.761795875
 20
1621.8122387689
 10
2781.2856733409
 20
1620.9963093668
 10
2783.6702206894
 20
1619.8744662865
 10
2785.8728856168
 20
1618.4667288444
 10
2787.8543615152
 20
1616.7982181486
 10
2789.5792889002
 20
1614.8987088118
 10
2791.0168864017
 20
1612.8020976233
 10
2792.1415000584
 20
1610.5457986593
 10
2792.9330611129
 20
1608.1700756283
 10
2793.3774441394
 20
1605.7173233641
 10
2793.4667191122
 20
1603.2313112889
 10
2793.1992929174
 20
1600.7564023471
 10
2792.5799377817
 20
1598.3367613475
 10
2791.6197061123
 20
1596.0155668409
 10
2790.3357332659
 20
1593.8342405984
 10
2788.7509317685
 20
1591.8317084383
 10
2786.8935824404
 20
1590.0437055946
 10
2784.7968297242
 20
1588.5021390204
 10
2782.4980902219
 20
1587.2345180077
 10
2780.0383849944
 20
1586.2634632834
 10
2777.4616075397
 20
1585.6063033422
 10
2774.8137405125
 20
1585.2747652188
 10
2772.1420351627
 20
1585.2747652188
 10
2769.4941681355
 20
1585.6063033422
 10
2766.9173906808
 20
1586.2634632834
 10
2764.4576854533
 20
1587.2345180077
 10
2762.158945951
 20
1588.5021390204
 10
2760.0621932348
 20
1590.0437055946
 10
2758.2048439067
 20
1591.8317084383
 10
2756.6200424093
 20
1593.8342405984
 10
2755.3360695629
 20
1596.0155668409
 10
2754.3758378935
 20
1598.3367613475
 10
2753.7564827578
 20
1600.7564023471
 10
2753.489056563
 20
1603.2313112889
 10
2753.5783315358
 20
1605.7173233641
 10
2754.0227145623
 20
1608.1700756283
 10
2754.8142756168
 20
1610.5457986593
 10
2755.9388892735
 20
1612.8020976233
 10
2757.3764867751
 20
1614.8987088118
 10
2759.10141416
 20
1616.7982181486
 10
2761.0828900584
 20
1618.4667288444
 10
2763.2855549858
 20
1619.8744662865
 10
2765.6701023343
 20
1620.9963093668
 10
2768.1939798002
 20
1621.8122387689
 10
2770.8121487301
 20
1622.3076942134
 10
2773.4778878376
 20
1622.473834286
  0
LWPOLYLINE
  5
F0
330
1F
100
AcDbEntity
  8
0
  6
Continuous
 62
     7
370
    15
100
AcDbPolyline
 90
       48
 70
   128
 43
0.0
 10
2976.8112211709
 20
1622.473834286
 10
2979.4769602784
 20
1622.3076942134
 10
2982.0951292084
 20
1621.8122387689
 10
2984.6190066742
 20
1620.9963093668
 10
2987.0035540228
 20
1619.8744662865
 10
2989.2062189501
 20
1618.4667288444
 10
2991.1876948485
 20
1616.7982181486
 10
2992.9126222335
 20
1614.8987088118
 10
2994.3502197351
 20
1612.8020976233
 10
2995.4748333918
 20
1610.5457986593
 10
2996.2663944462
 20
1608.1700756283
 10
2996.7107774727
 20
1605.7173233641
 10
2996.8000524455
 20
1603.2313112889
 10
2996.5326262507
 20
1600.7564023471
 10
2995.9132711151
 20
1598.3367613475
 10
2994.9530394456
 20
1596.0155668409
 10
2993.6690665993
 20
1593.8342405984
 10
2992.0842651019
 20
1591.8317084383
 10
2990.2269157737
 20
1590.0437055946
 10
2988.1301630575
 20
1588.5021390204
 10
2985.8314235553
 20
1587.2345180077
 10
2983.3717183277
 20
1586.2634632834
 10
2980.794940873
 20
1585.6063033422
 10
2978.1470738458
 20
1585.2747652188
 10
2975.475368496
 20
1585.2747652188
 10
2972.8275014689
 20
1585.6063033422
 10
2970.2507240141
 20
1586.2634632834
 10
2967.7910187866
 20
1587.2345180077
 10
2965.4922792843
 20
1588.5021390204
 10
2963.3955265682
 20
1590.0437055946
 10
2961.53817724
 20
1591.8317084383
 10
2959.9533757426
 20
1593.8342405984
 10
2958.6694028962
 20
1596.0155668409
 10
2957.7091712268
 20
1598.3367613475
 10
2957.0898160911
 20
1600.7564023471
 10
2956.8223898963
 20
1603.2313112889
 10
2956.9116648692
 20
1605.7173233641
 10
2957.3560478956
 20
1608.1700756283
 10
2958.1476089501
 20
1610.5457986593
 10
2959.2722226068
 20
1612.8020976233
 10
2960.7098201084
 20
1614.8987088118
 10
2962.4347474934
 20
1616.7982181486
 10
2964.4162233917
 20
1618.4667288444
 10
2966.6188883191
 20
1619.8744662865
 10
2969.0034356677
 20
1620.9963093668
 10
2971.5273131335
 20
1621.8122387689
 10
2974.1454820635
 20
1622.3076942134
 10
2976.8112211709
 20
1622.473834286
  0
LWPOLYLINE
  5
F1
330
1F
100
AcDbEntity
  8
0
  6
Continuous
 62
     7
370
    15
100
AcDbPolyline
 90
        9
 70
   128
 43
0.0
 10
1350.1445545043
 20
1788.3185796869
 10
1348.1936512841
 20
1788.2484502461
 10
1346.3177201806
 20
1788.0407569587
 10
1344.5888521741
 20
1787.7034813614
 10
1343.0734866924
 20
1787.2495847661
 10
1341.8298583812
 20
1786.6965101645
 10
1340.9057591792
 20
1786.0655119034
 10
1340.3367017002
 20
1785.3808388921
 10
1340.1445545043
 20
1784.6688027303
  0
LINE
  5
F2
330
1F
100
AcDbEntity
  8
0
  6
Continuous
 62
     7
370
    15
100
AcDbLine
 10
1340.1445545043
 20
1627.6287423153
 30
0.0
 11
1340.1445545043
 21
1784.6688027303
 31
0.0
  0
LWPOLYLINE
  5
F3
330
1F
100
AcDbEntity
  8
0
  6
Continuous
 62
     7
370
    15
100
AcDbPolyline
 90
        6
 70
   128
 43
0.0
 10
2366.8112211709
 20
1609.5139150767
 10
2363.6264248226
 20
1609.0290950861
 10
2360.6682553695
 20
1607.5502168541
 10
2358.4026590161
 20
1605.2429937085
 10
2357.0850637839
 20
1602.367627997
 10
2356.9305598472
 20
1600.1873356315
  0
ARC
  5
F4
330
1F
100
AcDbEntity
  8
0
  6
Continuous
 62
     7
370
    15
100
AcDbCircle
 10
2367.0988845683
 20
1599.8024599677
 30
0.0
 40
9.715714619385688
100
AcDbArc
 50
2.398895004
 51
91.6966644546
  0
LWPOLYLINE
  5
F5
330
1F
100
AcDbEntity
  8
0
  6
Continuous
 62
     7
370
    15
100
AcDbPolyline
 90
        6
 70
   128
 43
0.0
 10
2163.4778878376
 20
1609.5139150767
 10
2160.293091498
 20
1609.029095089
 10
2157.3349220434
 20
1607.5502168594
 10
2155.0693256877
 20
1605.2429937156
 10
2153.7517304527
 20
1602.3676280056
 10
2153.5972265131
 20
1600.1873356297
  0
ARC
  5
F6
330
1F
100
AcDbEntity
  8
0
  6
Continuous
 62
     7
370
    15
100
AcDbCircle
 10
2163.7655512366
 20
1599.802459971
 30
0.0
 40
9.715714616137815
100
AcDbArc
 50
2.3988949797
 51
91.6966644652
  0
LWPOLYLINE
  5
F7
330
1F
100
AcDbEntity
  8
0
  6
Continuous
 62
     7
370
    15
100
AcDbPolyline
 90
        6
 70
   128
 43
0.0
 10
2976.8112211709
 20
1609.5139150767
 10
2973.6264248218
 20
1609.0290950859
 10
2970.6682553688
 20
1607.5502168537
 10
2968.4026590156
 20
1605.2429937078
 10
2967.0850637837
 20
1602.3676279963
 10
2966.9305598472
 20
1600.1873356315
  0
ARC
  5
F8
330
1F
100
AcDbEntity
  8
0
  6
Continuous
 62
     7
370
    15
100
AcDbCircle
 10
2977.0988845681
 20
1599.8024599674
 30
0.0
 40
9.715714619676644
100
AcDbArc
 50
2.3988950063
 51
91.6966644536
  0
LWPOLYLINE
  5
F9
330
1F
100
AcDbEntity
  8
0
  6
Continuous
 62
     7
370
    15
100
AcDbPolyline
 90
        6
 70
   128
 43
0.0
 10
2570.1445545043
 20
1609.5139150767
 10
2566.9597581555
 20
1609.029095086
 10
2564.0015887024
 20
1607.5502168539
 10
2561.7359923491
 20
1605.2429937081
 10
2560.4183971171
 20
1602.3676279966
 10
2560.2638931805
 20
1600.1873356315
  0
ARC
  5
FA
330
1F
100
AcDbEntity
  8
0
  6
Continuous
 62
     7
370
    15
100
AcDbCircle
 10
2570.4322179015
 20
1599.8024599675
 30
0.0
 40
9.715714619537662
100
AcDbArc
 50
2.3988950052
 51
91.6966644541
  0
LWPOLYLINE
  5
FB
330
1F
100
AcDbEntity
  8
0
  6
Continuous
 62
     7
370
    15
100
AcDbPolyline
 90
        6
 70
   128
 43
0.0
 10
1960.1445545043
 20
1609.5139150767
 10
1956.9597581554
 20
1609.029095086
 10
1954.0015887024
 20
1607.5502168539
 10
1951.7359923491
 20
1605.2429937081
 10
1950.4183971171
 20
1602.3676279966
 10
1950.2638931805
 20
1600.1873356315
  0
ARC
  5
FC
330
1F
100
AcDbEntity
  8
0
  6
Continuous
 62
     7
370
    15
100
AcDbCircle
 10
1960.4322179015
 20
1599.8024599675
 30
0.0
 40
9.71571461955272
100
AcDbArc
 50
2.3988950052
 51
91.696664454
  0
LWPOLYLINE
  5
FD
330
1F
100
AcDbEntity
  8
0
  6
Continuous
 62
     7
370
    15
100
AcDbPolyline
 90
        6
 70
   128
 43
0.0
 10
2773.4778878376
 20
1609.5139150767
 10
2770.2930914958
 20
1609.0290950884
 10
2767.3349220416
 20
1607.5502168581
 10
2765.0693256865
 20
1605.2429937138
 10
2763.7517304521
 20
1602.3676280036
 10
2763.5972265132
 20
1600.1873356299
  0
ARC
  5
FE
330
1F
100
AcDbEntity
  8
0
  6
Continuous
 62
     7
370
    15
100
AcDbCircle
 10
2773.7655512362
 20
1599.8024599702
 30
0.0
 40
9.715714616941554
100
AcDbArc
 50
2.3988949859
 51
91.6966644625
  0
LWPOLYLINE
  5
FF
330
1F
100
AcDbEntity
  8
0
  6
Continuous
 62
     7
370
    15
100
AcDbPolyline
 90
        6
 70
   128
 43
0.0
 10
1756.8112211709
 20
1609.5139150767
 10
1753.6264248425
 20
1609.0290950926
 10
1750.668255386
 20
1607.5502168661
 10
1748.4026590274
 20
1605.2429937248
 10
1747.0850637887
 20
1602.3676280164
 10
1746.9305598455
 20
1600.1873356286
  0
ARC
  5
100
330
1F
100
AcDbEntity
  8
0
  6
Continuous
 62
     7
370
    15
100
AcDbCircle
 10
1757.0988845721
 20
1599.8024599752
 30
0.0
 40
9.715714612037448
100
AcDbArc
 50
2.3988949477
 51
91.6966644786
  0
LWPOLYLINE
  5
101
330
1F
100
AcDbEntity
  8
0
  6
Continuous
 62
     7
370
    15
100
AcDbPolyline
 90
        6
 70
   128
 43
0.0
 10
1553.4778878376
 20
1609.5139150767
 10
1550.2930914868
 20
1609.0290950854
 10
1547.3349220341
 20
1607.5502168527
 10
1545.0693256813
 20
1605.2429937064
 10
1543.7517304499
 20
1602.3676279947
 10
1543.597226514
 20
1600.1873356316
  0
ARC
  5
102
330
1F
100
AcDbEntity
  8
0
  6
Continuous
 62
     7
370
    15
100
AcDbCircle
 10
1553.7655512345
 20
1599.8024599668
 30
0.0
 40
9.715714620286345
100
AcDbArc
 50
2.3988950111
 51
91.6966644516
  0
LINE
  5
103
330
1F
100
AcDbEntity
  8
0
  6
Continuous
 62
     7
370
    15
100
AcDbLine
 10
2270.1445545043
 20
1277.6287423153
 30
0.0
 11
3170.1445545043
 21
1277.6287423153
 31
0.0
  0
LINE
  5
104
330
1F
100
AcDbEntity
  8
0
  6
Continuous
 62
     7
370
    15
100
AcDbLine
 10
3170.1445545043
 20
1277.6287423153
 30
0.0
 11
3170.1445545043
 21
1267.6287423153
 31
0.0
  0
LINE
  5
105
330
1F
100
AcDbEntity
  8
0
  6
Continuous
 62
     7
370
    15
100
AcDbLine
 10
3170.1445545043
 20
1267.6287423153
 30
0.0
 11
2270.1445545043
 21
1267.6287423153
 31
0.0
  0
LINE
  5
106
330
1F
100
AcDbEntity
  8
0
  6
Continuous
 62
     7
370
    15
100
AcDbLine
 10
2270.1445545043
 20
1267.6287423153
 30
0.0
 11
2270.1445545043
 21
1277.6287423153
 31
0.0
  0
LINE
  5
107
330
1F
100
AcDbEntity
  8
0
  6
Continuous
 62
     7
370
    15
100
AcDbLine
 10
3170.1445545043
 20
1277.6287423153
 30
0.0
 11
3180.1445545043
 21
1277.6287423153
 31
0.0
  0
ARC
  5
108
330
1F
100
AcDbEntity
  8
0
  6
Continuous
 62
     7
370
    15
100
AcDbCircle
 10
3170.1445545043
 20
1277.6287423153
 30
0.0
 40
10.0
100
AcDbArc
 50
270.0
 51
0.0
  0
LINE
  5
109
330
1F
100
AcDbEntity
  8
0
  6
Continuous
 62
     7
370
    15
100
AcDbLine
 10
2260.1445545043
 20
1277.6287423153
 30
0.0
 11
2270.1445545043
 21
1277.6287423153
 31
0.0
  0
ARC
  5
10A
330
1F
100
AcDbEntity
  8
0
  6
Continuous
 62
     7
370
    15
100
AcDbCircle
 10
2270.1445545043
 20
1277.6287423153
 30
0.0
 40
10.0
100
AcDbArc
 50
180.0
 51
270.0
  0
LINE
  5
10B
330
1F
100
AcDbEntity
  8
0
  6
Continuous
 62
     7
370
    15
100
AcDbLine
 10
3170.1445545043
 20
1277.6287423153
 30
0.0
 11
3170.1445545043
 21
1407.6287423153
 31
0.0
  0
LINE
  5
10C
330
1F
100
AcDbEntity
  8
0
  6
Continuous
 62
     7
370
    15
100
AcDbLine
 10
3170.1445545043
 20
1407.6287423153
 30
0.0
 11
3180.1445545043
 21
1407.6287423153
 31
0.0
  0
LINE
  5
10D
330
1F
100
AcDbEntity
  8
0
  6
Continuous
 62
     7
370
    15
100
AcDbLine
 10
3180.1445545043
 20
1407.6287423153
 30
0.0
 11
3180.1445545043
 21
1277.6287423153
 31
0.0
  0
LINE
  5
10E
330
1F
100
AcDbEntity
  8
0
  6
Continuous
 62
     7
370
    15
100
AcDbLine
 10
2270.1445545043
 20
1417.6287423153
 30
0.0
 11
3170.1445545043
 21
1417.6287423153
 31
0.0
  0
LINE
  5
10F
330
1F
100
AcDbEntity
  8
0
  6
Continuous
 62
     7
370
    15
100
AcDbLine
 10
3170.1445545043
 20
1417.6287423153
 30
0.0
 11
3170.1445545043
 21
1407.6287423153
 31
0.0
  0
LINE
  5
110
330
1F
100
AcDbEntity
  8
0
  6
Continuous
 62
     7
370
    15
100
AcDbLine
 10
3170.1445545043
 20
1407.6287423153
 30
0.0
 11
2270.1445545043
 21
1407.6287423153
 31
0.0
  0
LINE
  5
111
330
1F
100
AcDbEntity
  8
0
  6
Continuous
 62
     7
370
    15
100
AcDbLine
 10
2270.1445545043
 20
1407.6287423153
 30
0.0
 11
2270.1445545043
 21
1417.6287423153
 31
0.0
  0
LINE
  5
112
330
1F
100
AcDbEntity
  8
0
  6
Continuous
 62
     7
370
    15
100
AcDbLine
 10
2260.1445545043
 20
1407.6287423153
 30
0.0
 11
2270.1445545043
 21
1407.6287423153
 31
0.0
  0
LINE
  5
113
330
1F
100
AcDbEntity
  8
0
  6
Continuous
 62
     7
370
    15
100
AcDbLine
 10
2270.1445545043
 20
1407.6287423153
 30
0.0
 11
2270.1445545043
 21
1277.6287423153
 31
0.0
  0
ARC
  5
114
330
1F
100
AcDbEntity
  8
0
  6
Continuous
 62
     7
370
    15
100
AcDbCircle
 10
2270.1445545043
 20
1407.6287423153
 30
0.0
 40
10.00000000000023
100
AcDbArc
 50
90.0
 51
180.0
  0
ARC
  5
115
330
1F
100
AcDbEntity
  8
0
  6
Continuous
 62
     7
370
    15
100
AcDbCircle
 10
3170.1445545043
 20
1407.6287423153
 30
0.0
 40
10.00000000000023
100
AcDbArc
 50
0.0
 51
90.0
  0
LINE
  5
116
330
1F
100
AcDbEntity
  8
0
  6
Continuous
 62
     8
370
    15
100
AcDbLine
 10
1393.2814743494
 20
982.3670625341
 30
0.0
 11
1427.0076346592
 21
982.3670625341
 31
0.0
  0
LINE
  5
117
330
1F
100
AcDbEntity
  8
0
  6
Continuous
 62
     8
370
    15
100
AcDbLine
 10
3093.2814743494
 20
982.3670625341
 30
0.0
 11
3127.0076346592
 21
982.3670625341
 31
0.0
  0
LINE
  5
118
330
1F
100
AcDbEntity
  8
0
  6
Continuous
 62
     8
370
    15
100
AcDbLine
 10
2264.2939808404
 20
1415.738661415
 30
0.0
 11
2255.9951281681
 21
1415.738661415
 31
0.0
  0
LINE
  5
119
330
1F
100
AcDbEntity
  8
0
  6
Continuous
 62
     8
370
    15
100
AcDbLine
 10
1350.1445545043
 20
1417.6287423153
 30
0.0
 11
1350.1445545043
 21
1419.3884383715
 31
0.0
  0
LINE
  5
11A
330
1F
100
AcDbEntity
  8
0
  6
Continuous
 62
     8
370
    15
100
AcDbLine
 10
3170.1445545043
 20
1419.3884383715
 30
0.0
 11
3170.1445545043
 21
1417.6287423153
 31
0.0
  0
LINE
  5
11B
330
1F
100
AcDbEntity
  8
0
  6
Continuous
 62
     8
370
    15
100
AcDbLine
 10
1344.2939808404
 20
1415.738661415
 30
0.0
 11
1340.1445545043
 21
1415.738661415
 31
0.0
  0
LINE
  5
11C
330
1F
100
AcDbEntity
  8
0
  6
Continuous
 62
     8
370
    15
100
AcDbLine
 10
3180.1445545043
 20
1415.738661415
 30
0.0
 11
3175.9951281681
 21
1415.738661415
 31
0.0
  0
LINE
  5
11D
330
1F
100
AcDbEntity
  8
0
  6
Continuous
 62
     8
370
    15
100
AcDbLine
 10
1350.1445545043
 20
1788.3185796869
 30
0.0
 11
1350.1445545043
 21
1794.6688027303
 31
0.0
  0
LINE
  5
11E
330
1F
100
AcDbEntity
  8
0
  6
Continuous
 62
     8
370
    15
100
AcDbLine
 10
3170.1445545043
 20
1794.6688027303
 30
0.0
 11
3170.1445545043
 21
1788.3185796869
 31
0.0
  0
LWPOLYLINE
  5
11F
330
1F
100
AcDbEntity
  8
0
  6
Continuous
 62
     7
370
    15
100
AcDbPolyline
 90
       22
 70
   128
 43
0.0
 10
2354.84001289
 20
4282.5924084763
 10
2354.836599939
 20
4282.5887026361
 10
2355.0730597836
 20
4282.7209995323
 10
2355.5750739659
 20
4282.9531635552
 10
2356.3587976987
 20
4283.2501200637
 10
2357.428850997
 20
4283.5783331076
 10
2358.7735763936
 20
4283.9053667994
 10
2360.3644742638
 20
4284.2015451413
 10
2362.1590780934
 20
4284.4418672442
 10
2364.105159928
 20
4284.6071955171
 10
2366.1445706873
 20
4284.6846447569
 10
2366.8112211709
 20
4284.6896075328
 10
2367.8890802083
 20
4284.6766237561
 10
2369.9371979427
 20
4284.5793226208
 10
2371.8991638853
 20
4284.3917195288
 10
2373.7118906786
 20
4284.1257335288
 10
2375.3166038873
 20
4283.8006397392
 10
2376.6594578413
 20
4283.444255435
 10
2377.6956502619
 20
4283.0940171719
 10
2378.3361180998
 20
4282.8252941349
 10
2378.7017034039
 20
4282.6387944425
 10
2378.8059851239
 20
4282.5754267119
  0
LWPOLYLINE
  5
120
330
1F
100
AcDbEntity
  8
0
  6
Continuous
 62
     7
370
    15
100
AcDbPolyline
 90
       22
 70
   128
 43
0.0
 10
2558.1733462233
 20
4282.5924084763
 10
2558.1699332724
 20
4282.5887026361
 10
2558.4063931169
 20
4282.7209995323
 10
2558.9084072992
 20
4282.9531635552
 10
2559.6921310321
 20
4283.2501200637
 10
2560.7621843304
 20
4283.5783331076
 10
2562.106909727
 20
4283.9053667994
 10
2563.6978075971
 20
4284.2015451413
 10
2565.4924114267
 20
4284.4418672442
 10
2567.4384932613
 20
4284.6071955171
 10
2569.4779040207
 20
4284.6846447569
 10
2570.1445545043
 20
4284.6896075328
 10
2571.2224135417
 20
4284.6766237561
 10
2573.270531276
 20
4284.5793226208
 10
2575.2324972186
 20
4284.3917195288
 10
2577.045224012
 20
4284.1257335288
 10
2578.6499372206
 20
4283.8006397392
 10
2579.9927911746
 20
4283.444255435
 10
2581.0289835952
 20
4283.0940171719
 10
2581.6694514331
 20
4282.8252941349
 10
2582.0350367372
 20
4282.6387944425
 10
2582.1393184572
 20
4282.5754267119
  0
LWPOLYLINE
  5
121
330
1F
100
AcDbEntity
  8
0
  6
Continuous
 62
     7
370
    15
100
AcDbPolyline
 90
       22
 70
   128
 43
0.0
 10
2761.5066795567
 20
4282.5924084763
 10
2761.5032666057
 20
4282.5887026361
 10
2761.7397264502
 20
4282.7209995323
 10
2762.2417406326
 20
4282.9531635552
 10
2763.0254643654
 20
4283.2501200637
 10
2764.0955176637
 20
4283.5783331076
 10
2765.4402430603
 20
4283.9053667994
 10
2767.0311409304
 20
4284.2015451413
 10
2768.8257447601
 20
4284.4418672442
 10
2770.7718265946
 20
4284.6071955171
 10
2772.811237354
 20
4284.6846447569
 10
2773.4778878376
 20
4284.6896075328
 10
2774.555746875
 20
4284.6766237561
 10
2776.6038646093
 20
4284.5793226208
 10
2778.5658305519
 20
4284.3917195288
 10
2780.3785573453
 20
4284.1257335288
 10
2781.9832705539
 20
4283.8006397392
 10
2783.326124508
 20
4283.444255435
 10
2784.3623169285
 20
4283.0940171719
 10
2785.0027847665
 20
4282.8252941349
 10
2785.3683700706
 20
4282.6387944425
 10
2785.4726517906
 20
4282.5754267119
  0
LWPOLYLINE
  5
122
330
1F
100
AcDbEntity
  8
0
  6
Continuous
 62
     7
370
    15
100
AcDbPolyline
 90
       22
 70
   128
 43
0.0
 10
2151.5066795567
 20
4282.5924084763
 10
2151.5032666057
 20
4282.5887026361
 10
2151.7397264502
 20
4282.7209995323
 10
2152.2417406326
 20
4282.9531635552
 10
2153.0254643654
 20
4283.2501200637
 10
2154.0955176637
 20
4283.5783331076
 10
2155.4402430603
 20
4283.9053667994
 10
2157.0311409304
 20
4284.2015451413
 10
2158.8257447601
 20
4284.4418672442
 10
2160.7718265947
 20
4284.6071955171
 10
2162.811237354
 20
4284.6846447569
 10
2163.4778878376
 20
4284.6896075328
 10
2164.555746875
 20
4284.6766237561
 10
2166.6038646093
 20
4284.5793226208
 10
2168.5658305519
 20
4284.3917195288
 10
2170.3785573453
 20
4284.1257335288
 10
2171.9832705539
 20
4283.8006397392
 10
2173.326124508
 20
4283.444255435
 10
2174.3623169285
 20
4283.0940171719
 10
2175.0027847665
 20
4282.8252941349
 10
2175.3683700706
 20
4282.6387944425
 10
2175.4726517906
 20
4282.5754267119
  0
LWPOLYLINE
  5
123
330
1F
100
AcDbEntity
  8
0
  6
Continuous
 62
     7
370
    15
100
AcDbPolyline
 90
       22
 70
   128
 43
0.0
 10
2964.84001289
 20
4282.5924084763
 10
2964.836599939
 20
4282.5887026361
 10
2965.0730597836
 20
4282.7209995323
 10
2965.5750739659
 20
4282.9531635552
 10
2966.3587976987
 20
4283.2501200637
 10
2967.428850997
 20
4283.5783331076
 10
2968.7735763936
 20
4283.9053667994
 10
2970.3644742638
 20
4284.2015451413
 10
2972.1590780934
 20
4284.4418672442
 10
2974.105159928
 20
4284.6071955171
 10
2976.1445706873
 20
4284.6846447569
 10
2976.8112211709
 20
4284.6896075328
 10
2977.8890802083
 20
4284.6766237561
 10
2979.9371979427
 20
4284.5793226208
 10
2981.8991638853
 20
4284.3917195288
 10
2983.7118906786
 20
4284.1257335288
 10
2985.3166038873
 20
4283.8006397392
 10
2986.6594578413
 20
4283.444255435
 10
2987.6956502619
 20
4283.0940171719
 10
2988.3361180998
 20
4282.8252941349
 10
2988.7017034039
 20
4282.6387944425
 10
2988.8059851239
 20
4282.5754267119
  0
LWPOLYLINE
  5
124
330
1F
100
AcDbEntity
  8
0
  6
Continuous
 62
     7
370
    15
100
AcDbPolyline
 90
       22
 70
   128
 43
0.0
 10
1744.84001289
 20
4282.5924084763
 10
1744.836599939
 20
4282.5887026361
 10
1745.0730597836
 20
4282.7209995323
 10
1745.5750739659
 20
4282.9531635552
 10
1746.3587976987
 20
4283.2501200637
 10
1747.428850997
 20
4283.5783331076
 10
1748.7735763936
 20
4283.9053667994
 10
1750.3644742638
 20
4284.2015451413
 10
1752.1590780934
 20
4284.4418672442
 10
1754.105159928
 20
4284.6071955171
 10
1756.1445706873
 20
4284.6846447569
 10
1756.8112211709
 20
4284.6896075328
 10
1757.8890802083
 20
4284.6766237561
 10
1759.9371979427
 20
4284.5793226208
 10
1761.8991638853
 20
4284.3917195288
 10
1763.7118906786
 20
4284.1257335288
 10
1765.3166038873
 20
4283.8006397392
 10
1766.6594578413
 20
4283.444255435
 10
1767.6956502619
 20
4283.0940171719
 10
1768.3361180998
 20
4282.8252941349
 10
1768.7017034039
 20
4282.6387944425
 10
1768.8059851239
 20
4282.5754267119
  0
LWPOLYLINE
  5
125
330
1F
100
AcDbEntity
  8
0
  6
Continuous
 62
     7
370
    15
100
AcDbPolyline
 90
       22
 70
   128
 43
0.0
 10
1541.5066795567
 20
4282.5924084763
 10
1541.5032666057
 20
4282.5887026361
 10
1541.7397264502
 20
4282.7209995323
 10
1542.2417406326
 20
4282.9531635552
 10
1543.0254643654
 20
4283.2501200637
 10
1544.0955176637
 20
4283.5783331076
 10
1545.4402430603
 20
4283.9053667994
 10
1547.0311409304
 20
4284.2015451413
 10
1548.8257447601
 20
4284.4418672442
 10
1550.7718265947
 20
4284.6071955171
 10
1552.811237354
 20
4284.6846447569
 10
1553.4778878376
 20
4284.6896075328
 10
1554.555746875
 20
4284.6766237561
 10
1556.6038646093
 20
4284.5793226208
 10
1558.5658305519
 20
4284.3917195288
 10
1560.3785573453
 20
4284.1257335288
 10
1561.9832705539
 20
4283.8006397392
 10
1563.326124508
 20
4283.444255435
 10
1564.3623169285
 20
4283.0940171719
 10
1565.0027847665
 20
4282.8252941349
 10
1565.3683700706
 20
4282.6387944425
 10
1565.4726517906
 20
4282.5754267119
  0
LWPOLYLINE
  5
126
330
1F
100
AcDbEntity
  8
0
  6
Continuous
 62
     7
370
    15
100
AcDbPolyline
 90
       22
 70
   128
 43
0.0
 10
1948.1733462233
 20
4282.5924084763
 10
1948.1699332724
 20
4282.5887026361
 10
1948.4063931169
 20
4282.7209995323
 10
1948.9084072992
 20
4282.9531635552
 10
1949.6921310321
 20
4283.2501200637
 10
1950.7621843304
 20
4283.5783331076
 10
1952.106909727
 20
4283.9053667994
 10
1953.6978075971
 20
4284.2015451413
 10
1955.4924114267
 20
4284.4418672442
 10
1957.4384932613
 20
4284.6071955171
 10
1959.4779040207
 20
4284.6846447569
 10
1960.1445545043
 20
4284.6896075328
 10
1961.2224135417
 20
4284.6766237561
 10
1963.270531276
 20
4284.5793226208
 10
1965.2324972186
 20
4284.3917195288
 10
1967.045224012
 20
4284.1257335288
 10
1968.6499372206
 20
4283.8006397392
 10
1969.9927911746
 20
4283.444255435
 10
1971.0289835952
 20
4283.0940171719
 10
1971.6694514331
 20
4282.8252941349
 10
1972.0350367372
 20
4282.6387944425
 10
1972.1393184572
 20
4282.5754267119
  0
LWPOLYLINE
  5
127
330
1F
100
AcDbEntity
  8
0
  6
Continuous
 62
     7
370
    15
100
AcDbPolyline
 90
        7
 70
   128
 43
0.0
 10
1547.3481954019
 20
4284.24400309
 10
1549.0688193414
 20
4283.3949518807
 10
1551.0302287997
 20
4282.6563548219
 10
1552.464223179
 20
4282.3538957832
 10
1554.2925920295
 20
4282.3523761354
 10
1556.7581790235
 20
4282.9729595948
 10
1559.578206405
 20
4284.2431710522
  0
LWPOLYLINE
  5
128
330
1F
100
AcDbEntity
  8
0
  6
Continuous
 62
     7
370
    15
100
AcDbPolyline
 90
        7
 70
   128
 43
0.0
 10
2970.6815287385
 20
4284.2440030905
 10
2972.4021526749
 20
4283.3949518834
 10
2974.3635621332
 20
4282.6563548244
 10
2975.7975565125
 20
4282.3538957857
 10
2977.625925363
 20
4282.3523761383
 10
2980.0915123571
 20
4282.9729595986
 10
2982.9115397337
 20
4284.2431710528
  0
LWPOLYLINE
  5
129
330
1F
100
AcDbEntity
  8
0
  6
Continuous
 62
     7
370
    15
100
AcDbPolyline
 90
        7
 70
   128
 43
0.0
 10
2564.0148620722
 20
4284.2440030905
 10
2565.7354860082
 20
4283.3949518837
 10
2567.6968954666
 20
4282.6563548248
 10
2569.1308898459
 20
4282.3538957861
 10
2570.9592586964
 20
4282.3523761388
 10
2573.4248456904
 20
4282.972959599
 10
2576.2448730666
 20
4284.2431710529
  0
LWPOLYLINE
  5
12A
330
1F
100
AcDbEntity
  8
0
  6
Continuous
 62
     7
370
    15
100
AcDbPolyline
 90
        7
 70
   128
 43
0.0
 10
2360.6815287393
 20
4284.2440030906
 10
2362.4021526749
 20
4283.394951884
 10
2364.3635621333
 20
4282.6563548251
 10
2365.7975565125
 20
4282.3538957865
 10
2367.6259253631
 20
4282.3523761392
 10
2370.0915123571
 20
4282.9729595995
 10
2372.9115397327
 20
4284.243171053
  0
LWPOLYLINE
  5
12B
330
1F
100
AcDbEntity
  8
0
  6
Continuous
 62
     7
370
    15
100
AcDbPolyline
 90
        7
 70
   128
 43
0.0
 10
1954.0148620754
 20
4284.2440030909
 10
1955.7354860083
 20
4283.3949518861
 10
1957.6968954666
 20
4282.6563548267
 10
1959.1308898459
 20
4282.3538957877
 10
1960.9592586965
 20
4282.3523761408
 10
1963.4248456905
 20
4282.9729596021
 10
1966.2448730622
 20
4284.2431710536
  0
LWPOLYLINE
  5
12C
330
1F
100
AcDbEntity
  8
0
  6
Continuous
 62
     7
370
    15
100
AcDbPolyline
 90
        7
 70
   128
 43
0.0
 10
2157.3481954474
 20
4284.2440030961
 10
2159.0688193424
 20
4283.3949519171
 10
2161.0302288007
 20
4282.6563548538
 10
2162.4642231801
 20
4282.3538958141
 10
2164.2925920308
 20
4282.3523761744
 10
2166.758179025
 20
4282.9729596498
 10
2169.5782063311
 20
4284.243171063
  0
LWPOLYLINE
  5
12D
330
1F
100
AcDbEntity
  8
0
  6
Continuous
 62
     7
370
    15
100
AcDbPolyline
 90
        7
 70
   128
 43
0.0
 10
2767.3481954404
 20
4284.2440030952
 10
2769.0688193419
 20
4283.3949519116
 10
2771.0302288003
 20
4282.6563548492
 10
2772.4642231797
 20
4282.3538958101
 10
2774.2925920303
 20
4282.3523761702
 10
2776.7581790244
 20
4282.9729596447
 10
2779.5782063373
 20
4284.2431710621
  0
LWPOLYLINE
  5
12E
330
1F
100
AcDbEntity
  8
0
  6
Continuous
 62
     7
370
    15
100
AcDbPolyline
 90
        7
 70
   128
 43
0.0
 10
1750.6815288224
 20
4284.2440031017
 10
1752.4021526773
 20
4283.3949519503
 10
1754.3635621357
 20
4282.6563548823
 10
1755.797556515
 20
4282.3538958405
 10
1757.6259253663
 20
4282.3523762051
 10
1760.0915123605
 20
4282.9729596907
 10
1762.911539611
 20
4284.2431710708
  0
LINE
  5
12F
330
1F
100
AcDbEntity
  8
0
  6
Continuous
 62
     7
370
    15
100
AcDbLine
 10
3300.1445545043
 20
4465.0759178684
 30
0.0
 11
3190.1445545043
 21
4465.0759178684
 31
0.0
  0
LINE
  5
130
330
1F
100
AcDbEntity
  8
0
  6
Continuous
 62
     7
370
    15
100
AcDbLine
 10
3190.1445545043
 20
4465.0759178684
 30
0.0
 11
3190.1445545043
 21
4475.0759178684
 31
0.0
  0
LINE
  5
131
330
1F
100
AcDbEntity
  8
0
  6
Continuous
 62
     7
370
    15
100
AcDbLine
 10
3190.1445545043
 20
4475.0759178684
 30
0.0
 11
3300.1445545043
 21
4475.0759178684
 31
0.0
  0
LINE
  5
132
330
1F
100
AcDbEntity
  8
0
  6
Continuous
 62
     7
370
    15
100
AcDbLine
 10
3300.1445545043
 20
4465.0759178684
 30
0.0
 11
3300.1445545043
 21
4475.0759178684
 31
0.0
  0
ARC
  5
133
330
1F
100
AcDbEntity
  8
0
  6
Continuous
 62
     7
370
    15
100
AcDbCircle
 10
3300.1445545043
 20
4465.0759178684
 30
0.0
 40
10.0
100
AcDbArc
 50
0.0
 51
90.0
  0
LINE
  5
134
330
1F
100
AcDbEntity
  8
0
  6
Continuous
 62
     7
370
    15
100
AcDbLine
 10
3300.1445545043
 20
4465.0759178684
 30
0.0
 11
3310.1445545043
 21
4465.0759178684
 31
0.0
  0
ARC
  5
135
330
1F
100
AcDbEntity
  8
0
  6
Continuous
 62
     7
370
    15
100
AcDbCircle
 10
3190.1445545043
 20
4465.0759178684
 30
0.0
 40
10.0
100
AcDbArc
 50
90.0
 51
180.0
  0
LINE
  5
136
330
1F
100
AcDbEntity
  8
0
  6
Continuous
 62
     7
370
    15
100
AcDbLine
 10
3180.1445545043
 20
4465.0759178684
 30
0.0
 11
3190.1445545043
 21
4465.0759178684
 31
0.0
  0
LINE
  5
137
330
1F
100
AcDbEntity
  8
0
  6
Continuous
 62
     7
370
    15
100
AcDbLine
 10
3180.1445545043
 20
3665.0759178684
 30
0.0
 11
3180.1445545043
 21
4298.1412267637
 31
0.0
  0
LINE
  5
138
330
1F
100
AcDbEntity
  8
0
  6
Continuous
 62
     7
370
    15
100
AcDbLine
 10
3190.1445545043
 20
4465.0759178684
 30
0.0
 11
3190.1445545043
 21
3665.0759178684
 31
0.0
  0
LINE
  5
139
330
1F
100
AcDbEntity
  8
0
  6
Continuous
 62
     7
370
    15
100
AcDbLine
 10
3190.1445545043
 20
3665.0759178684
 30
0.0
 11
3180.1445545043
 21
3665.0759178684
 31
0.0
  0
LINE
  5
13A
330
1F
100
AcDbEntity
  8
0
  6
Continuous
 62
     7
370
    15
100
AcDbLine
 10
3300.1445545043
 20
3665.0759178684
 30
0.0
 11
3300.1445545043
 21
4465.0759178684
 31
0.0
  0
LINE
  5
13B
330
1F
100
AcDbEntity
  8
0
  6
Continuous
 62
     7
370
    15
100
AcDbLine
 10
3310.1445545043
 20
4465.0759178684
 30
0.0
 11
3310.1445545043
 21
3665.0759178684
 31
0.0
  0
LINE
  5
13C
330
1F
100
AcDbEntity
  8
0
  6
Continuous
 62
     7
370
    15
100
AcDbLine
 10
3310.1445545043
 20
3665.0759178684
 30
0.0
 11
3300.1445545043
 21
3665.0759178684
 31
0.0
  0
LINE
  5
13D
330
1F
100
AcDbEntity
  8
0
  6
Continuous
 62
     7
370
    15
100
AcDbLine
 10
3190.1445545043
 20
3665.0759178684
 30
0.0
 11
3300.1445545043
 21
3665.0759178684
 31
0.0
  0
ARC
  5
13E
330
1F
100
AcDbEntity
  8
0
  6
Continuous
 62
     7
370
    15
100
AcDbCircle
 10
3190.1445545043
 20
3665.0759178684
 30
0.0
 40
10.0
100
AcDbArc
 50
180.0
 51
270.0
  0
LINE
  5
13F
330
1F
100
AcDbEntity
  8
0
  6
Continuous
 62
     7
370
    15
100
AcDbLine
 10
3190.1445545043
 20
3655.0759178684
 30
0.0
 11
3190.1445545043
 21
3665.0759178684
 31
0.0
  0
LINE
  5
140
330
1F
100
AcDbEntity
  8
0
  6
Continuous
 62
     7
370
    15
100
AcDbLine
 10
3300.1445545043
 20
3655.0759178684
 30
0.0
 11
3300.1445545043
 21
3665.0759178684
 31
0.0
  0
ARC
  5
141
330
1F
100
AcDbEntity
  8
0
  6
Continuous
 62
     7
370
    15
100
AcDbCircle
 10
3300.1445545043
 20
3665.0759178684
 30
0.0
 40
10.0
100
AcDbArc
 50
270.0
 51
0.0
  0
LINE
  5
142
330
1F
100
AcDbEntity
  8
0
  6
Continuous
 62
     7
370
    15
100
AcDbLine
 10
3300.1445545043
 20
3655.0759178684
 30
0.0
 11
3190.1445545043
 21
3655.0759178684
 31
0.0
  0
LINE
  5
143
330
1F
100
AcDbEntity
  8
0
  6
Continuous
 62
     7
370
    15
100
AcDbLine
 10
1220.1445545043
 20
4475.0759178684
 30
0.0
 11
1330.1445545043
 21
4475.0759178684
 31
0.0
  0
LINE
  5
144
330
1F
100
AcDbEntity
  8
0
  6
Continuous
 62
     7
370
    15
100
AcDbLine
 10
1330.1445545043
 20
4475.0759178684
 30
0.0
 11
1330.1445545043
 21
4465.0759178684
 31
0.0
  0
LINE
  5
145
330
1F
100
AcDbEntity
  8
0
  6
Continuous
 62
     7
370
    15
100
AcDbLine
 10
1330.1445545043
 20
4465.0759178684
 30
0.0
 11
1220.1445545043
 21
4465.0759178684
 31
0.0
  0
LINE
  5
146
330
1F
100
AcDbEntity
  8
0
  6
Continuous
 62
     7
370
    15
100
AcDbLine
 10
1220.1445545043
 20
4465.0759178684
 30
0.0
 11
1220.1445545043
 21
4475.0759178684
 31
0.0
  0
ARC
  5
147
330
1F
100
AcDbEntity
  8
0
  6
Continuous
 62
     7
370
    15
100
AcDbCircle
 10
1330.1445545043
 20
4465.0759178684
 30
0.0
 40
10.00000000000023
100
AcDbArc
 50
0.0
 51
90.0
  0
LINE
  5
148
330
1F
100
AcDbEntity
  8
0
  6
Continuous
 62
     7
370
    15
100
AcDbLine
 10
1330.1445545043
 20
4465.0759178684
 30
0.0
 11
1340.1445545043
 21
4465.0759178684
 31
0.0
  0
ARC
  5
149
330
1F
100
AcDbEntity
  8
0
  6
Continuous
 62
     7
370
    15
100
AcDbCircle
 10
1220.1445545043
 20
4465.0759178684
 30
0.0
 40
10.0
100
AcDbArc
 50
90.0
 51
180.0
  0
LINE
  5
14A
330
1F
100
AcDbEntity
  8
0
  6
Continuous
 62
     7
370
    15
100
AcDbLine
 10
1210.1445545043
 20
4465.0759178684
 30
0.0
 11
1220.1445545043
 21
4465.0759178684
 31
0.0
  0
LINE
  5
14B
330
1F
100
AcDbEntity
  8
0
  6
Continuous
 62
     7
370
    15
100
AcDbLine
 10
1210.1445545043
 20
3665.0759178684
 30
0.0
 11
1210.1445545043
 21
4465.0759178684
 31
0.0
  0
LINE
  5
14C
330
1F
100
AcDbEntity
  8
0
  6
Continuous
 62
     7
370
    15
100
AcDbLine
 10
1220.1445545043
 20
4465.0759178684
 30
0.0
 11
1220.1445545043
 21
3665.0759178684
 31
0.0
  0
LINE
  5
14D
330
1F
100
AcDbEntity
  8
0
  6
Continuous
 62
     7
370
    15
100
AcDbLine
 10
1210.1445545043
 20
3665.0759178684
 30
0.0
 11
1220.1445545043
 21
3665.0759178684
 31
0.0
  0
LINE
  5
14E
330
1F
100
AcDbEntity
  8
0
  6
Continuous
 62
     7
370
    15
100
AcDbLine
 10
1330.1445545043
 20
3665.0759178684
 30
0.0
 11
1330.1445545043
 21
4465.0759178684
 31
0.0
  0
LINE
  5
14F
330
1F
100
AcDbEntity
  8
0
  6
Continuous
 62
     7
370
    15
100
AcDbLine
 10
1340.1445545043
 20
4298.1412267637
 30
0.0
 11
1340.1445545043
 21
3665.0759178684
 31
0.0
  0
LINE
  5
150
330
1F
100
AcDbEntity
  8
0
  6
Continuous
 62
     7
370
    15
100
AcDbLine
 10
1330.1445545043
 20
3665.0759178684
 30
0.0
 11
1340.1445545043
 21
3665.0759178684
 31
0.0
  0
LINE
  5
151
330
1F
100
AcDbEntity
  8
0
  6
Continuous
 62
     7
370
    15
100
AcDbLine
 10
1220.1445545043
 20
3665.0759178684
 30
0.0
 11
1330.1445545043
 21
3665.0759178684
 31
0.0
  0
LINE
  5
152
330
1F
100
AcDbEntity
  8
0
  6
Continuous
 62
     7
370
    15
100
AcDbLine
 10
1330.1445545043
 20
3665.0759178684
 30
0.0
 11
1330.1445545043
 21
3655.0759178684
 31
0.0
  0
LINE
  5
153
330
1F
100
AcDbEntity
  8
0
  6
Continuous
 62
     7
370
    15
100
AcDbLine
 10
1330.1445545043
 20
3655.0759178684
 30
0.0
 11
1220.1445545043
 21
3655.0759178684
 31
0.0
  0
LINE
  5
154
330
1F
100
AcDbEntity
  8
0
  6
Continuous
 62
     7
370
    15
100
AcDbLine
 10
1220.1445545043
 20
3655.0759178684
 30
0.0
 11
1220.1445545043
 21
3665.0759178684
 31
0.0
  0
ARC
  5
155
330
1F
100
AcDbEntity
  8
0
  6
Continuous
 62
     7
370
    15
100
AcDbCircle
 10
1330.1445545043
 20
3665.0759178684
 30
0.0
 40
10.00000000000023
100
AcDbArc
 50
270.0
 51
0.0
  0
ARC
  5
156
330
1F
100
AcDbEntity
  8
0
  6
Continuous
 62
     7
370
    15
100
AcDbCircle
 10
1220.1445545043
 20
3665.0759178684
 30
0.0
 40
10.0
100
AcDbArc
 50
180.0
 51
270.0
  0
ARC
  5
157
330
1F
100
AcDbEntity
  8
0
  6
Continuous
 62
     7
370
    15
100
AcDbCircle
 10
1350.1445545043
 20
4195.0759178684
 30
0.0
 40
10.0
100
AcDbArc
 50
90.0
 51
180.0
  0
LINE
  5
158
330
1F
100
AcDbEntity
  8
0
  6
Continuous
 62
     7
370
    15
100
AcDbLine
 10
1350.1445545043
 20
4205.0759178684
 30
0.0
 11
1350.1445545043
 21
4195.0759178684
 31
0.0
  0
LINE
  5
159
330
1F
100
AcDbEntity
  8
0
  6
Continuous
 62
     7
370
    15
100
AcDbLine
 10
1350.1445545043
 20
4195.0759178684
 30
0.0
 11
1340.1445545043
 21
4195.0759178684
 31
0.0
  0
LINE
  5
15A
330
1F
100
AcDbEntity
  8
0
  6
Continuous
 62
     7
370
    15
100
AcDbLine
 10
2250.1445545043
 20
4195.0759178684
 30
0.0
 11
2250.1445545043
 21
4205.0759178684
 31
0.0
  0
LINE
  5
15B
330
1F
100
AcDbEntity
  8
0
  6
Continuous
 62
     7
370
    15
100
AcDbLine
 10
2250.1445545043
 20
4195.0759178684
 30
0.0
 11
1350.1445545043
 21
4195.0759178684
 31
0.0
  0
ARC
  5
15C
330
1F
100
AcDbEntity
  8
0
  6
Continuous
 62
     7
370
    15
100
AcDbCircle
 10
2250.1445545043
 20
4195.0759178684
 30
0.0
 40
10.00000000000045
100
AcDbArc
 50
0.0
 51
90.0
  0
LINE
  5
15D
330
1F
100
AcDbEntity
  8
0
  6
Continuous
 62
     7
370
    15
100
AcDbLine
 10
2260.1445545043
 20
4195.0759178684
 30
0.0
 11
2250.1445545043
 21
4195.0759178684
 31
0.0
  0
LINE
  5
15E
330
1F
100
AcDbEntity
  8
0
  6
Continuous
 62
     7
370
    15
100
AcDbLine
 10
1350.1445545043
 20
3640.0759178684
 30
0.0
 11
2250.1445545043
 21
3640.0759178684
 31
0.0
  0
LINE
  5
15F
330
1F
100
AcDbEntity
  8
0
  6
Continuous
 62
     7
370
    15
100
AcDbLine
 10
1350.1445545043
 20
4195.0759178684
 30
0.0
 11
1350.1445545043
 21
3640.0759178684
 31
0.0
  0
LINE
  5
160
330
1F
100
AcDbEntity
  8
0
  6
Continuous
 62
     7
370
    15
100
AcDbLine
 10
2250.1445545043
 20
3640.0759178684
 30
0.0
 11
2250.1445545043
 21
4195.0759178684
 31
0.0
  0
LINE
  5
161
330
1F
100
AcDbEntity
  8
0
  6
Continuous
 62
     7
370
    15
100
AcDbLine
 10
1350.1445545043
 20
3640.0759178684
 30
0.0
 11
1340.1445545043
 21
3640.0759178684
 31
0.0
  0
LINE
  5
162
330
1F
100
AcDbEntity
  8
0
  6
Continuous
 62
     7
370
    15
100
AcDbLine
 10
1340.1445545043
 20
3640.0759178684
 30
0.0
 11
1340.1445545043
 21
3665.0759178684
 31
0.0
  0
LINE
  5
163
330
1F
100
AcDbEntity
  8
0
  6
Continuous
 62
     7
370
    15
100
AcDbLine
 10
2260.1445545043
 20
3640.0759178684
 30
0.0
 11
2250.1445545043
 21
3640.0759178684
 31
0.0
  0
LINE
  5
164
330
1F
100
AcDbEntity
  8
0
  6
Continuous
 62
     7
370
    15
100
AcDbLine
 10
2260.1445545043
 20
4195.0759178684
 30
0.0
 11
2260.1445545043
 21
3640.0759178684
 31
0.0
  0
ARC
  5
165
330
1F
100
AcDbEntity
  8
0
  6
Continuous
 62
     7
370
    15
100
AcDbCircle
 10
2250.1445545043
 20
3640.0759178684
 30
0.0
 40
10.00000000000045
100
AcDbArc
 50
270.0
 51
0.0
  0
LINE
  5
166
330
1F
100
AcDbEntity
  8
0
  6
Continuous
 62
     7
370
    15
100
AcDbLine
 10
2250.1445545043
 20
3640.0759178684
 30
0.0
 11
2250.1445545043
 21
3630.0759178684
 31
0.0
  0
LINE
  5
167
330
1F
100
AcDbEntity
  8
0
  6
Continuous
 62
     7
370
    15
100
AcDbLine
 10
2250.1445545043
 20
3630.0759178684
 30
0.0
 11
1350.1445545043
 21
3630.0759178684
 31
0.0
  0
LINE
  5
168
330
1F
100
AcDbEntity
  8
0
  6
Continuous
 62
     7
370
    15
100
AcDbLine
 10
1350.1445545043
 20
3640.0759178684
 30
0.0
 11
1350.1445545043
 21
3630.0759178684
 31
0.0
  0
ARC
  5
169
330
1F
100
AcDbEntity
  8
0
  6
Continuous
 62
     7
370
    15
100
AcDbCircle
 10
1350.1445545043
 20
3640.0759178684
 30
0.0
 40
9.999999999999773
100
AcDbArc
 50
180.0
 51
270.0
  0
ARC
  5
16A
330
1F
100
AcDbEntity
  8
0
  6
Continuous
 62
     7
370
    15
100
AcDbCircle
 10
3170.4775763001
 20
4360.0618864479
 30
0.0
 40
9.67359368585553
100
AcDbArc
 50
268.0271536195
 51
357.8809109971
  0
LINE
  5
16B
330
1F
100
AcDbEntity
  8
0
  6
Continuous
 62
     7
370
    15
100
AcDbLine
 10
3170.1445545043
 20
4363.3539663275
 30
0.0
 11
3170.1445545043
 21
4350.3940267425
 31
0.0
  0
LWPOLYLINE
  5
16C
330
1F
100
AcDbEntity
  8
0
  6
Continuous
 62
     7
370
    15
100
AcDbPolyline
 90
        9
 70
   128
 43
0.0
 10
3180.1445545043
 20
4359.7041893709
 10
3179.9524073083
 20
4360.4162255327
 10
3179.3833498294
 20
4361.100898544
 10
3178.4592506273
 20
4361.7318968052
 10
3177.2156223161
 20
4362.2849714067
 10
3175.7002568345
 20
4362.738868002
 10
3173.9713888279
 20
4363.0761435993
 10
3172.0954577244
 20
4363.2838368867
 10
3170.1445545043
 20
4363.3539663275
  0
ARC
  5
16D
330
1F
100
AcDbEntity
  8
0
  6
Continuous
 62
     7
370
    15
100
AcDbCircle
 10
1349.8115327085
 20
4360.0618864479
 30
0.0
 40
9.67359368585552
100
AcDbArc
 50
182.1190890029
 51
271.9728463805
  0
LWPOLYLINE
  5
16E
330
1F
100
AcDbEntity
  8
0
  6
Continuous
 62
     7
370
    15
100
AcDbPolyline
 90
        9
 70
   128
 43
0.0
 10
1350.1445545043
 20
4363.3539663275
 10
1348.1936512841
 20
4363.2838368867
 10
1346.3177201806
 20
4363.0761435993
 10
1344.5888521741
 20
4362.738868002
 10
1343.0734866924
 20
4362.2849714067
 10
1341.8298583812
 20
4361.7318968052
 10
1340.9057591792
 20
4361.100898544
 10
1340.3367017002
 20
4360.4162255327
 10
1340.1445545043
 20
4359.7041893709
  0
LINE
  5
16F
330
1F
100
AcDbEntity
  8
0
  6
Continuous
 62
     7
370
    15
100
AcDbLine
 10
1350.1445545043
 20
4350.3940267425
 30
0.0
 11
1350.1445545043
 21
4363.3539663275
 31
0.0
  0
LINE
  5
170
330
1F
100
AcDbEntity
  8
0
  6
Continuous
 62
     7
370
    15
100
AcDbLine
 10
3170.1445545043
 20
4350.3940267425
 30
0.0
 11
1350.1445545043
 21
4350.3940267425
 31
0.0
  0
LINE
  5
171
330
1F
100
AcDbEntity
  8
0
  6
Continuous
 62
     7
370
    15
100
AcDbLine
 10
1350.1445545043
 20
4363.3539663275
 30
0.0
 11
3170.1445545043
 21
4363.3539663275
 31
0.0
  0
LINE
  5
172
330
1F
100
AcDbEntity
  8
0
  6
Continuous
 62
     7
370
    15
100
AcDbLine
 10
1350.1445545043
 20
4468.7256948249
 30
0.0
 11
1350.1445545043
 21
4363.3539663275
 31
0.0
  0
LINE
  5
173
330
1F
100
AcDbEntity
  8
0
  6
Continuous
 62
     7
370
    15
100
AcDbLine
 10
3170.1445545043
 20
4468.7256948249
 30
0.0
 11
1350.1445545043
 21
4468.7256948249
 31
0.0
  0
LINE
  5
174
330
1F
100
AcDbEntity
  8
0
  6
Continuous
 62
     7
370
    15
100
AcDbLine
 10
3170.1445545043
 20
4363.3539663275
 30
0.0
 11
3170.1445545043
 21
4468.7256948249
 31
0.0
  0
LINE
  5
175
330
1F
100
AcDbEntity
  8
0
  6
Continuous
 62
     7
370
    15
100
AcDbLine
 10
1340.1445545043
 20
4359.7041893709
 30
0.0
 11
1340.1445545043
 21
4465.0759178684
 31
0.0
  0
LWPOLYLINE
  5
176
330
1F
100
AcDbEntity
  8
0
  6
Continuous
 62
     7
370
    15
100
AcDbPolyline
 90
        9
 70
   128
 43
0.0
 10
1350.1445545043
 20
4468.7256948249
 10
1348.1936512841
 20
4468.6555653841
 10
1346.3177201806
 20
4468.4478720968
 10
1344.5888521741
 20
4468.1105964994
 10
1343.0734866924
 20
4467.6566999042
 10
1341.8298583812
 20
4467.1036253026
 10
1340.9057591792
 20
4466.4726270415
 10
1340.3367017002
 20
4465.7879540301
 10
1340.1445545043
 20
4465.0759178684
  0
LINE
  5
177
330
1F
100
AcDbEntity
  8
0
  6
Continuous
 62
     7
370
    15
100
AcDbLine
 10
3180.1445545043
 20
4465.0759178684
 30
0.0
 11
3180.1445545043
 21
4359.7041893709
 31
0.0
  0
LWPOLYLINE
  5
178
330
1F
100
AcDbEntity
  8
0
  6
Continuous
 62
     7
370
    15
100
AcDbPolyline
 90
        9
 70
   128
 43
0.0
 10
3170.1445545043
 20
4468.7256948249
 10
3172.0954577244
 20
4468.6555653841
 10
3173.9713888279
 20
4468.4478720968
 10
3175.7002568345
 20
4468.1105964994
 10
3177.2156223161
 20
4467.6566999042
 10
3178.4592506273
 20
4467.1036253026
 10
3179.3833498294
 20
4466.4726270415
 10
3179.9524073083
 20
4465.7879540301
 10
3180.1445545043
 20
4465.0759178684
  0
LINE
  5
179
330
1F
100
AcDbEntity
  8
0
  6
Continuous
 62
     7
370
    15
100
AcDbLine
 10
3180.1445545043
 20
4359.7041893709
 30
0.0
 11
3180.1445545043
 21
4298.1412267637
 31
0.0
  0
ARC
  5
17A
330
1F
100
AcDbEntity
  8
0
  6
Continuous
 62
     7
370
    15
100
AcDbCircle
 10
3170.4775763001
 20
4215.4336149453
 30
0.0
 40
9.67359368585781
100
AcDbArc
 50
268.0271536195
 51
357.8809109971
  0
LINE
  5
17B
330
1F
100
AcDbEntity
  8
0
  6
Continuous
 62
     7
370
    15
100
AcDbLine
 10
3170.1445545043
 20
4205.76575524
 30
0.0
 11
3170.1445545043
 21
4350.3940267425
 31
0.0
  0
LINE
  5
17C
330
1F
100
AcDbEntity
  8
0
  6
Continuous
 62
     7
370
    15
100
AcDbLine
 10
1350.1445545043
 20
4205.76575524
 30
0.0
 11
3170.1445545043
 21
4205.76575524
 31
0.0
  0
LINE
  5
17D
330
1F
100
AcDbEntity
  8
0
  6
Continuous
 62
     7
370
    15
100
AcDbLine
 10
1350.1445545043
 20
4350.3940267425
 30
0.0
 11
1350.1445545043
 21
4205.76575524
 31
0.0
  0
LWPOLYLINE
  5
17E
330
1F
100
AcDbEntity
  8
0
  6
Continuous
 62
     7
370
    15
100
AcDbPolyline
 90
       48
 70
   128
 43
0.0
 10
1553.4778878376
 20
4285.3794449044
 10
1556.1436269451
 20
4285.3143145481
 10
1558.761795875
 20
4285.1200857321
 10
1561.2856733409
 20
4284.8002244742
 10
1563.6702206894
 20
4284.360438706
 10
1565.8728856168
 20
4283.8085764151
 10
1567.8543615152
 20
4283.1544855971
 10
1569.5792889002
 20
4282.4098385181
 10
1571.0168864017
 20
4281.5879234229
 10
1572.1415000584
 20
4280.7034074059
 10
1572.9330611129
 20
4279.7720746763
 10
1573.3774441394
 20
4278.8105448887
 10
1573.4667191122
 20
4277.8359765651
 10
1573.1992929174
 20
4276.8657609001
 10
1572.5799377817
 20
4275.9172114154
 10
1571.6197061123
 20
4275.007254999
 10
1570.3357332659
 20
4274.1521298446
 10
1568.7509317685
 20
4273.367095681
 10
1566.8935824404
 20
4272.6661614613
 10
1564.7968297242
 20
4272.0618353733
 10
1562.4980902219
 20
4271.5649016304
 10
1560.0383849944
 20
4271.184228027
 10
1557.4616075397
 20
4270.9266076925
 10
1554.8137405125
 20
4270.796637868
 10
1552.1420351627
 20
4270.796637868
 10
1549.4941681355
 20
4270.9266076925
 10
1546.9173906808
 20
4271.184228027
 10
1544.4576854533
 20
4271.5649016304
 10
1542.158945951
 20
4272.0618353733
 10
1540.0621932348
 20
4272.6661614613
 10
1538.2048439067
 20
4273.367095681
 10
1536.6200424093
 20
4274.1521298446
 10
1535.3360695629
 20
4275.007254999
 10
1534.3758378935
 20
4275.9172114154
 10
1533.7564827578
 20
4276.8657609001
 10
1533.489056563
 20
4277.8359765651
 10
1533.5783315358
 20
4278.8105448887
 10
1534.0227145623
 20
4279.7720746763
 10
1534.8142756168
 20
4280.7034074059
 10
1535.9388892735
 20
4281.5879234229
 10
1537.3764867751
 20
4282.4098385181
 10
1539.10141416
 20
4283.1544855971
 10
1541.0828900584
 20
4283.8085764151
 10
1543.2855549858
 20
4284.360438706
 10
1545.6701023343
 20
4284.8002244742
 10
1548.1939798002
 20
4285.1200857321
 10
1550.8121487301
 20
4285.3143145481
 10
1553.4778878376
 20
4285.3794449044
  0
LWPOLYLINE
  5
17F
330
1F
100
AcDbEntity
  8
0
  6
Continuous
 62
     7
370
    15
100
AcDbPolyline
 90
       48
 70
   128
 43
0.0
 10
1756.8112211709
 20
4285.3794449044
 10
1759.4769602784
 20
4285.3143145481
 10
1762.0951292084
 20
4285.1200857321
 10
1764.6190066742
 20
4284.8002244742
 10
1767.0035540228
 20
4284.360438706
 10
1769.2062189501
 20
4283.8085764151
 10
1771.1876948485
 20
4283.1544855971
 10
1772.9126222335
 20
4282.4098385181
 10
1774.3502197351
 20
4281.5879234229
 10
1775.4748333918
 20
4280.7034074059
 10
1776.2663944462
 20
4279.7720746763
 10
1776.7107774727
 20
4278.8105448887
 10
1776.8000524455
 20
4277.8359765651
 10
1776.5326262507
 20
4276.8657609001
 10
1775.9132711151
 20
4275.9172114154
 10
1774.9530394456
 20
4275.007254999
 10
1773.6690665993
 20
4274.1521298446
 10
1772.0842651019
 20
4273.367095681
 10
1770.2269157737
 20
4272.6661614613
 10
1768.1301630575
 20
4272.0618353733
 10
1765.8314235553
 20
4271.5649016304
 10
1763.3717183277
 20
4271.184228027
 10
1760.794940873
 20
4270.9266076925
 10
1758.1470738458
 20
4270.796637868
 10
1755.475368496
 20
4270.796637868
 10
1752.8275014689
 20
4270.9266076925
 10
1750.2507240141
 20
4271.184228027
 10
1747.7910187866
 20
4271.5649016304
 10
1745.4922792843
 20
4272.0618353733
 10
1743.3955265682
 20
4272.6661614613
 10
1741.53817724
 20
4273.367095681
 10
1739.9533757426
 20
4274.1521298446
 10
1738.6694028962
 20
4275.007254999
 10
1737.7091712268
 20
4275.9172114154
 10
1737.0898160911
 20
4276.8657609001
 10
1736.8223898963
 20
4277.8359765651
 10
1736.9116648692
 20
4278.8105448887
 10
1737.3560478956
 20
4279.7720746763
 10
1738.1476089501
 20
4280.7034074059
 10
1739.2722226068
 20
4281.5879234229
 10
1740.7098201084
 20
4282.4098385181
 10
1742.4347474934
 20
4283.1544855971
 10
1744.4162233917
 20
4283.8085764151
 10
1746.6188883191
 20
4284.360438706
 10
1749.0034356677
 20
4284.8002244742
 10
1751.5273131335
 20
4285.1200857321
 10
1754.1454820635
 20
4285.3143145481
 10
1756.8112211709
 20
4285.3794449044
  0
LWPOLYLINE
  5
180
330
1F
100
AcDbEntity
  8
0
  6
Continuous
 62
     7
370
    15
100
AcDbPolyline
 90
       48
 70
   128
 43
0.0
 10
1960.1445545043
 20
4285.3794449044
 10
1962.8102936117
 20
4285.3143145481
 10
1965.4284625417
 20
4285.1200857321
 10
1967.9523400075
 20
4284.8002244742
 10
1970.3368873561
 20
4284.360438706
 10
1972.5395522835
 20
4283.8085764151
 10
1974.5210281818
 20
4283.1544855971
 10
1976.2459555668
 20
4282.4098385181
 10
1977.6835530684
 20
4281.5879234229
 10
1978.8081667251
 20
4280.7034074059
 10
1979.5997277796
 20
4279.7720746763
 10
1980.044110806
 20
4278.8105448887
 10
1980.1333857789
 20
4277.8359765651
 10
1979.8659595841
 20
4276.8657609001
 10
1979.2466044484
 20
4275.9172114154
 10
1978.286372779
 20
4275.007254999
 10
1977.0023999326
 20
4274.1521298446
 10
1975.4175984352
 20
4273.367095681
 10
1973.5602491071
 20
4272.6661614613
 10
1971.4634963909
 20
4272.0618353733
 10
1969.1647568886
 20
4271.5649016304
 10
1966.7050516611
 20
4271.184228027
 10
1964.1282742063
 20
4270.9266076925
 10
1961.4804071792
 20
4270.796637868
 10
1958.8087018294
 20
4270.796637868
 10
1956.1608348022
 20
4270.9266076925
 10
1953.5840573475
 20
4271.184228027
 10
1951.1243521199
 20
4271.5649016304
 10
1948.8256126177
 20
4272.0618353733
 10
1946.7288599015
 20
4272.6661614613
 10
1944.8715105733
 20
4273.367095681
 10
1943.2867090759
 20
4274.1521298446
 10
1942.0027362296
 20
4275.007254999
 10
1941.0425045601
 20
4275.9172114154
 10
1940.4231494245
 20
4276.8657609001
 10
1940.1557232297
 20
4277.8359765651
 10
1940.2449982025
 20
4278.8105448887
 10
1940.689381229
 20
4279.7720746763
 10
1941.4809422834
 20
4280.7034074059
 10
1942.6055559401
 20
4281.5879234229
 10
1944.0431534417
 20
4282.4098385181
 10
1945.7680808267
 20
4283.1544855971
 10
1947.7495567251
 20
4283.8085764151
 10
1949.9522216524
 20
4284.360438706
 10
1952.336769001
 20
4284.8002244742
 10
1954.8606464668
 20
4285.1200857321
 10
1957.4788153968
 20
4285.3143145481
 10
1960.1445545043
 20
4285.3794449044
  0
LWPOLYLINE
  5
181
330
1F
100
AcDbEntity
  8
0
  6
Continuous
 62
     7
370
    15
100
AcDbPolyline
 90
       48
 70
   128
 43
0.0
 10
2163.4778878376
 20
4285.3794449044
 10
2166.1436269451
 20
4285.3143145481
 10
2168.761795875
 20
4285.1200857321
 10
2171.2856733409
 20
4284.8002244742
 10
2173.6702206894
 20
4284.360438706
 10
2175.8728856168
 20
4283.8085764151
 10
2177.8543615152
 20
4283.1544855971
 10
2179.5792889002
 20
4282.4098385181
 10
2181.0168864017
 20
4281.5879234229
 10
2182.1415000584
 20
4280.7034074059
 10
2182.9330611129
 20
4279.7720746763
 10
2183.3774441394
 20
4278.8105448887
 10
2183.4667191122
 20
4277.8359765651
 10
2183.1992929174
 20
4276.8657609001
 10
2182.5799377817
 20
4275.9172114154
 10
2181.6197061123
 20
4275.007254999
 10
2180.3357332659
 20
4274.1521298446
 10
2178.7509317685
 20
4273.367095681
 10
2176.8935824404
 20
4272.6661614613
 10
2174.7968297242
 20
4272.0618353733
 10
2172.4980902219
 20
4271.5649016304
 10
2170.0383849944
 20
4271.184228027
 10
2167.4616075397
 20
4270.9266076925
 10
2164.8137405125
 20
4270.796637868
 10
2162.1420351627
 20
4270.796637868
 10
2159.4941681355
 20
4270.9266076925
 10
2156.9173906808
 20
4271.184228027
 10
2154.4576854533
 20
4271.5649016304
 10
2152.158945951
 20
4272.0618353733
 10
2150.0621932348
 20
4272.6661614613
 10
2148.2048439067
 20
4273.367095681
 10
2146.6200424093
 20
4274.1521298446
 10
2145.3360695629
 20
4275.007254999
 10
2144.3758378935
 20
4275.9172114154
 10
2143.7564827578
 20
4276.8657609001
 10
2143.489056563
 20
4277.8359765651
 10
2143.5783315358
 20
4278.8105448887
 10
2144.0227145623
 20
4279.7720746763
 10
2144.8142756168
 20
4280.7034074059
 10
2145.9388892735
 20
4281.5879234229
 10
2147.3764867751
 20
4282.4098385181
 10
2149.10141416
 20
4283.1544855971
 10
2151.0828900584
 20
4283.8085764151
 10
2153.2855549858
 20
4284.360438706
 10
2155.6701023343
 20
4284.8002244742
 10
2158.1939798002
 20
4285.1200857321
 10
2160.8121487301
 20
4285.3143145481
 10
2163.4778878376
 20
4285.3794449044
  0
LWPOLYLINE
  5
182
330
1F
100
AcDbEntity
  8
0
  6
Continuous
 62
     7
370
    15
100
AcDbPolyline
 90
       48
 70
   128
 43
0.0
 10
2366.8112211709
 20
4285.3794449044
 10
2369.4769602784
 20
4285.3143145481
 10
2372.0951292084
 20
4285.1200857321
 10
2374.6190066742
 20
4284.8002244742
 10
2377.0035540228
 20
4284.360438706
 10
2379.2062189501
 20
4283.8085764151
 10
2381.1876948485
 20
4283.1544855971
 10
2382.9126222335
 20
4282.4098385181
 10
2384.3502197351
 20
4281.5879234229
 10
2385.4748333918
 20
4280.7034074059
 10
2386.2663944462
 20
4279.7720746763
 10
2386.7107774727
 20
4278.8105448887
 10
2386.8000524455
 20
4277.8359765651
 10
2386.5326262507
 20
4276.8657609001
 10
2385.9132711151
 20
4275.9172114154
 10
2384.9530394456
 20
4275.007254999
 10
2383.6690665993
 20
4274.1521298446
 10
2382.0842651019
 20
4273.367095681
 10
2380.2269157737
 20
4272.6661614613
 10
2378.1301630575
 20
4272.0618353733
 10
2375.8314235553
 20
4271.5649016304
 10
2373.3717183277
 20
4271.184228027
 10
2370.794940873
 20
4270.9266076925
 10
2368.1470738458
 20
4270.796637868
 10
2365.475368496
 20
4270.796637868
 10
2362.8275014689
 20
4270.9266076925
 10
2360.2507240141
 20
4271.184228027
 10
2357.7910187866
 20
4271.5649016304
 10
2355.4922792843
 20
4272.0618353733
 10
2353.3955265682
 20
4272.6661614613
 10
2351.53817724
 20
4273.367095681
 10
2349.9533757426
 20
4274.1521298446
 10
2348.6694028962
 20
4275.007254999
 10
2347.7091712268
 20
4275.9172114154
 10
2347.0898160911
 20
4276.8657609001
 10
2346.8223898963
 20
4277.8359765651
 10
2346.9116648692
 20
4278.8105448887
 10
2347.3560478956
 20
4279.7720746763
 10
2348.1476089501
 20
4280.7034074059
 10
2349.2722226068
 20
4281.5879234229
 10
2350.7098201084
 20
4282.4098385181
 10
2352.4347474934
 20
4283.1544855971
 10
2354.4162233917
 20
4283.8085764151
 10
2356.6188883191
 20
4284.360438706
 10
2359.0034356677
 20
4284.8002244742
 10
2361.5273131335
 20
4285.1200857321
 10
2364.1454820635
 20
4285.3143145481
 10
2366.8112211709
 20
4285.3794449044
  0
LWPOLYLINE
  5
183
330
1F
100
AcDbEntity
  8
0
  6
Continuous
 62
     7
370
    15
100
AcDbPolyline
 90
       48
 70
   128
 43
0.0
 10
2570.1445545043
 20
4285.3794449044
 10
2572.8102936117
 20
4285.3143145481
 10
2575.4284625417
 20
4285.1200857321
 10
2577.9523400075
 20
4284.8002244742
 10
2580.3368873561
 20
4284.360438706
 10
2582.5395522835
 20
4283.8085764151
 10
2584.5210281818
 20
4283.1544855971
 10
2586.2459555668
 20
4282.4098385181
 10
2587.6835530684
 20
4281.5879234229
 10
2588.8081667251
 20
4280.7034074059
 10
2589.5997277796
 20
4279.7720746763
 10
2590.044110806
 20
4278.8105448887
 10
2590.1333857789
 20
4277.8359765651
 10
2589.8659595841
 20
4276.8657609001
 10
2589.2466044484
 20
4275.9172114154
 10
2588.286372779
 20
4275.007254999
 10
2587.0023999326
 20
4274.1521298446
 10
2585.4175984352
 20
4273.367095681
 10
2583.5602491071
 20
4272.6661614613
 10
2581.4634963909
 20
4272.0618353733
 10
2579.1647568886
 20
4271.5649016304
 10
2576.7050516611
 20
4271.184228027
 10
2574.1282742063
 20
4270.9266076925
 10
2571.4804071792
 20
4270.796637868
 10
2568.8087018294
 20
4270.796637868
 10
2566.1608348022
 20
4270.9266076925
 10
2563.5840573475
 20
4271.184228027
 10
2561.1243521199
 20
4271.5649016304
 10
2558.8256126177
 20
4272.0618353733
 10
2556.7288599015
 20
4272.6661614613
 10
2554.8715105733
 20
4273.367095681
 10
2553.2867090759
 20
4274.1521298446
 10
2552.0027362296
 20
4275.007254999
 10
2551.0425045601
 20
4275.9172114154
 10
2550.4231494245
 20
4276.8657609001
 10
2550.1557232297
 20
4277.8359765651
 10
2550.2449982025
 20
4278.8105448887
 10
2550.689381229
 20
4279.7720746763
 10
2551.4809422834
 20
4280.7034074059
 10
2552.6055559401
 20
4281.5879234229
 10
2554.0431534417
 20
4282.4098385181
 10
2555.7680808267
 20
4283.1544855971
 10
2557.7495567251
 20
4283.8085764151
 10
2559.9522216524
 20
4284.360438706
 10
2562.336769001
 20
4284.8002244742
 10
2564.8606464668
 20
4285.1200857321
 10
2567.4788153968
 20
4285.3143145481
 10
2570.1445545043
 20
4285.3794449044
  0
LWPOLYLINE
  5
184
330
1F
100
AcDbEntity
  8
0
  6
Continuous
 62
     7
370
    15
100
AcDbPolyline
 90
       48
 70
   128
 43
0.0
 10
2773.4778878376
 20
4285.3794449044
 10
2776.1436269451
 20
4285.3143145481
 10
2778.761795875
 20
4285.1200857321
 10
2781.2856733409
 20
4284.8002244742
 10
2783.6702206894
 20
4284.360438706
 10
2785.8728856168
 20
4283.8085764151
 10
2787.8543615152
 20
4283.1544855971
 10
2789.5792889002
 20
4282.4098385181
 10
2791.0168864017
 20
4281.5879234229
 10
2792.1415000584
 20
4280.7034074059
 10
2792.9330611129
 20
4279.7720746763
 10
2793.3774441394
 20
4278.8105448887
 10
2793.4667191122
 20
4277.8359765651
 10
2793.1992929174
 20
4276.8657609001
 10
2792.5799377817
 20
4275.9172114154
 10
2791.6197061123
 20
4275.007254999
 10
2790.3357332659
 20
4274.1521298446
 10
2788.7509317685
 20
4273.367095681
 10
2786.8935824404
 20
4272.6661614613
 10
2784.7968297242
 20
4272.0618353733
 10
2782.4980902219
 20
4271.5649016304
 10
2780.0383849944
 20
4271.184228027
 10
2777.4616075397
 20
4270.9266076925
 10
2774.8137405125
 20
4270.796637868
 10
2772.1420351627
 20
4270.796637868
 10
2769.4941681355
 20
4270.9266076925
 10
2766.9173906808
 20
4271.184228027
 10
2764.4576854533
 20
4271.5649016304
 10
2762.158945951
 20
4272.0618353733
 10
2760.0621932348
 20
4272.6661614613
 10
2758.2048439067
 20
4273.367095681
 10
2756.6200424093
 20
4274.1521298446
 10
2755.3360695629
 20
4275.007254999
 10
2754.3758378935
 20
4275.9172114154
 10
2753.7564827578
 20
4276.8657609001
 10
2753.489056563
 20
4277.8359765651
 10
2753.5783315358
 20
4278.8105448887
 10
2754.0227145623
 20
4279.7720746763
 10
2754.8142756168
 20
4280.7034074059
 10
2755.9388892735
 20
4281.5879234229
 10
2757.3764867751
 20
4282.4098385181
 10
2759.10141416
 20
4283.1544855971
 10
2761.0828900584
 20
4283.8085764151
 10
2763.2855549858
 20
4284.360438706
 10
2765.6701023343
 20
4284.8002244742
 10
2768.1939798002
 20
4285.1200857321
 10
2770.8121487301
 20
4285.3143145481
 10
2773.4778878376
 20
4285.3794449044
  0
LWPOLYLINE
  5
185
330
1F
100
AcDbEntity
  8
0
  6
Continuous
 62
     7
370
    15
100
AcDbPolyline
 90
       48
 70
   128
 43
0.0
 10
2976.8112211709
 20
4285.3794449044
 10
2979.4769602784
 20
4285.3143145481
 10
2982.0951292084
 20
4285.1200857321
 10
2984.6190066742
 20
4284.8002244742
 10
2987.0035540228
 20
4284.360438706
 10
2989.2062189501
 20
4283.8085764151
 10
2991.1876948485
 20
4283.1544855971
 10
2992.9126222335
 20
4282.4098385181
 10
2994.3502197351
 20
4281.5879234229
 10
2995.4748333918
 20
4280.7034074059
 10
2996.2663944462
 20
4279.7720746763
 10
2996.7107774727
 20
4278.8105448887
 10
2996.8000524455
 20
4277.8359765651
 10
2996.5326262507
 20
4276.8657609001
 10
2995.9132711151
 20
4275.9172114154
 10
2994.9530394456
 20
4275.007254999
 10
2993.6690665993
 20
4274.1521298446
 10
2992.0842651019
 20
4273.367095681
 10
2990.2269157737
 20
4272.6661614613
 10
2988.1301630575
 20
4272.0618353733
 10
2985.8314235553
 20
4271.5649016304
 10
2983.3717183277
 20
4271.184228027
 10
2980.794940873
 20
4270.9266076925
 10
2978.1470738458
 20
4270.796637868
 10
2975.475368496
 20
4270.796637868
 10
2972.8275014689
 20
4270.9266076925
 10
2970.2507240141
 20
4271.184228027
 10
2967.7910187866
 20
4271.5649016304
 10
2965.4922792843
 20
4272.0618353733
 10
2963.3955265682
 20
4272.6661614613
 10
2961.53817724
 20
4273.367095681
 10
2959.9533757426
 20
4274.1521298446
 10
2958.6694028962
 20
4275.007254999
 10
2957.7091712268
 20
4275.9172114154
 10
2957.0898160911
 20
4276.8657609001
 10
2956.8223898963
 20
4277.8359765651
 10
2956.9116648692
 20
4278.8105448887
 10
2957.3560478956
 20
4279.7720746763
 10
2958.1476089501
 20
4280.7034074059
 10
2959.2722226068
 20
4281.5879234229
 10
2960.7098201084
 20
4282.4098385181
 10
2962.4347474934
 20
4283.1544855971
 10
2964.4162233917
 20
4283.8085764151
 10
2966.6188883191
 20
4284.360438706
 10
2969.0034356677
 20
4284.8002244742
 10
2971.5273131335
 20
4285.1200857321
 10
2974.1454820635
 20
4285.3143145481
 10
2976.8112211709
 20
4285.3794449044
  0
ARC
  5
186
330
1F
100
AcDbEntity
  8
0
  6
Continuous
 62
     7
370
    15
100
AcDbCircle
 10
1349.8115327085
 20
4215.4336149453
 30
0.0
 40
9.673593685857583
100
AcDbArc
 50
182.1190890029
 51
271.9728463805
  0
LINE
  5
187
330
1F
100
AcDbEntity
  8
0
  6
Continuous
 62
     7
370
    15
100
AcDbLine
 10
1340.1445545043
 20
4298.1412267637
 30
0.0
 11
1340.1445545043
 21
4359.7041893709
 31
0.0
  0
ARC
  5
188
330
1F
100
AcDbEntity
  8
0
  6
Continuous
 62
     7
370
    15
100
AcDbCircle
 10
3170.1445545043
 20
4465.0759178684
 30
0.0
 40
10.0
100
AcDbArc
 50
0.0
 51
90.0
  0
LINE
  5
189
330
1F
100
AcDbEntity
  8
0
  6
Continuous
 62
     7
370
    15
100
AcDbLine
 10
3170.1445545043
 20
4475.0759178684
 30
0.0
 11
3170.1445545043
 21
4468.7256948249
 31
0.0
  0
LINE
  5
18A
330
1F
100
AcDbEntity
  8
0
  6
Continuous
 62
     7
370
    15
100
AcDbLine
 10
1350.1445545043
 20
4468.7256948249
 30
0.0
 11
1350.1445545043
 21
4475.0759178684
 31
0.0
  0
ARC
  5
18B
330
1F
100
AcDbEntity
  8
0
  6
Continuous
 62
     7
370
    15
100
AcDbCircle
 10
1350.1445545043
 20
4465.0759178684
 30
0.0
 40
10.0
100
AcDbArc
 50
90.0
 51
180.0
  0
LINE
  5
18C
330
1F
100
AcDbEntity
  8
0
  6
Continuous
 62
     7
370
    15
100
AcDbLine
 10
1350.1445545043
 20
4475.0759178684
 30
0.0
 11
3170.1445545043
 21
4475.0759178684
 31
0.0
  0
ARC
  5
18D
330
1F
100
AcDbEntity
  8
0
  6
Continuous
 62
     7
370
    15
100
AcDbCircle
 10
1350.1445545043
 20
4215.0759178684
 30
0.0
 40
9.999999999999773
100
AcDbArc
 50
180.0
 51
270.0
  0
LINE
  5
18E
330
1F
100
AcDbEntity
  8
0
  6
Continuous
 62
     7
370
    15
100
AcDbLine
 10
1350.1445545043
 20
4205.0759178684
 30
0.0
 11
1350.1445545043
 21
4205.76575524
 31
0.0
  0
ARC
  5
18F
330
1F
100
AcDbEntity
  8
0
  6
Continuous
 62
     7
370
    15
100
AcDbCircle
 10
3170.1445545043
 20
4215.0759178684
 30
0.0
 40
10.0
100
AcDbArc
 50
270.0
 51
0.0
  0
LINE
  5
190
330
1F
100
AcDbEntity
  8
0
  6
Continuous
 62
     7
370
    15
100
AcDbLine
 10
3170.1445545043
 20
4205.76575524
 30
0.0
 11
3170.1445545043
 21
4205.0759178684
 31
0.0
  0
LINE
  5
191
330
1F
100
AcDbEntity
  8
0
  6
Continuous
 62
     7
370
    15
100
AcDbLine
 10
3170.1445545043
 20
4205.0759178684
 30
0.0
 11
1350.1445545043
 21
4205.0759178684
 31
0.0
  0
LINE
  5
192
330
1F
100
AcDbEntity
  8
0
  6
Continuous
 62
     7
370
    15
100
AcDbLine
 10
2270.1445545043
 20
4205.0759178684
 30
0.0
 11
2270.1445545043
 21
4195.0759178684
 31
0.0
  0
LINE
  5
193
330
1F
100
AcDbEntity
  8
0
  6
Continuous
 62
     7
370
    15
100
AcDbLine
 10
3170.1445545043
 20
4195.0759178684
 30
0.0
 11
3170.1445545043
 21
4205.0759178684
 31
0.0
  0
LINE
  5
194
330
1F
100
AcDbEntity
  8
0
  6
Continuous
 62
     7
370
    15
100
AcDbLine
 10
3170.1445545043
 20
4195.0759178684
 30
0.0
 11
2270.1445545043
 21
4195.0759178684
 31
0.0
  0
ARC
  5
195
330
1F
100
AcDbEntity
  8
0
  6
Continuous
 62
     7
370
    15
100
AcDbCircle
 10
2270.1445545043
 20
4195.0759178684
 30
0.0
 40
10.0
100
AcDbArc
 50
90.0
 51
180.0
  0
LINE
  5
196
330
1F
100
AcDbEntity
  8
0
  6
Continuous
 62
     7
370
    15
100
AcDbLine
 10
2270.1445545043
 20
4195.0759178684
 30
0.0
 11
2260.1445545043
 21
4195.0759178684
 31
0.0
  0
ARC
  5
197
330
1F
100
AcDbEntity
  8
0
  6
Continuous
 62
     7
370
    15
100
AcDbCircle
 10
3170.1445545043
 20
4195.0759178684
 30
0.0
 40
10.0
100
AcDbArc
 50
0.0
 51
90.0
  0
LINE
  5
198
330
1F
100
AcDbEntity
  8
0
  6
Continuous
 62
     7
370
    15
100
AcDbLine
 10
3180.1445545043
 20
4195.0759178684
 30
0.0
 11
3170.1445545043
 21
4195.0759178684
 31
0.0
  0
LINE
  5
199
330
1F
100
AcDbEntity
  8
0
  6
Continuous
 62
     7
370
    15
100
AcDbLine
 10
2270.1445545043
 20
3640.0759178684
 30
0.0
 11
3170.1445545043
 21
3640.0759178684
 31
0.0
  0
LINE
  5
19A
330
1F
100
AcDbEntity
  8
0
  6
Continuous
 62
     7
370
    15
100
AcDbLine
 10
2270.1445545043
 20
4195.0759178684
 30
0.0
 11
2270.1445545043
 21
3640.0759178684
 31
0.0
  0
LINE
  5
19B
330
1F
100
AcDbEntity
  8
0
  6
Continuous
 62
     7
370
    15
100
AcDbLine
 10
3170.1445545043
 20
3640.0759178684
 30
0.0
 11
3170.1445545043
 21
4195.0759178684
 31
0.0
  0
LINE
  5
19C
330
1F
100
AcDbEntity
  8
0
  6
Continuous
 62
     7
370
    15
100
AcDbLine
 10
2260.1445545043
 20
3640.0759178684
 30
0.0
 11
2270.1445545043
 21
3640.0759178684
 31
0.0
  0
LINE
  5
19D
330
1F
100
AcDbEntity
  8
0
  6
Continuous
 62
     7
370
    15
100
AcDbLine
 10
3170.1445545043
 20
3640.0759178684
 30
0.0
 11
3180.1445545043
 21
3640.0759178684
 31
0.0
  0
LINE
  5
19E
330
1F
100
AcDbEntity
  8
0
  6
Continuous
 62
     7
370
    15
100
AcDbLine
 10
3180.1445545043
 20
3665.0759178684
 30
0.0
 11
3180.1445545043
 21
3640.0759178684
 31
0.0
  0
LINE
  5
19F
330
1F
100
AcDbEntity
  8
0
  6
Continuous
 62
     7
370
    15
100
AcDbLine
 10
2270.1445545043
 20
3630.0759178684
 30
0.0
 11
2270.1445545043
 21
3640.0759178684
 31
0.0
  0
ARC
  5
1A0
330
1F
100
AcDbEntity
  8
0
  6
Continuous
 62
     7
370
    15
100
AcDbCircle
 10
2270.1445545043
 20
3640.0759178684
 30
0.0
 40
10.0
100
AcDbArc
 50
180.0
 51
270.0
  0
LINE
  5
1A1
330
1F
100
AcDbEntity
  8
0
  6
Continuous
 62
     7
370
    15
100
AcDbLine
 10
3170.1445545043
 20
3640.0759178684
 30
0.0
 11
3170.1445545043
 21
3630.0759178684
 31
0.0
  0
LINE
  5
1A2
330
1F
100
AcDbEntity
  8
0
  6
Continuous
 62
     7
370
    15
100
AcDbLine
 10
3170.1445545043
 20
3630.0759178684
 30
0.0
 11
2270.1445545043
 21
3630.0759178684
 31
0.0
  0
ARC
  5
1A3
330
1F
100
AcDbEntity
  8
0
  6
Continuous
 62
     7
370
    15
100
AcDbCircle
 10
3170.1445545043
 20
3640.0759178684
 30
0.0
 40
10.0
100
AcDbArc
 50
270.0
 51
0.0
  0
LINE
  5
1A4
330
1F
100
AcDbEntity
  8
0
  6
Continuous
 62
     7
370
    15
100
AcDbLine
 10
6467.5803646261
 20
1137.6287423153
 30
0.0
 11
6475.7172844712
 21
982.3670625341
 31
0.0
  0
LINE
  5
1A5
330
1F
100
AcDbEntity
  8
0
  6
Continuous
 62
     7
370
    15
100
AcDbLine
 10
6509.443444781
 20
982.3670625341
 30
0.0
 11
6517.5803646261
 21
1137.6287423153
 31
0.0
  0
LINE
  5
1A6
330
1F
100
AcDbEntity
  8
0
  6
Continuous
 62
     7
370
    15
100
AcDbLine
 10
5762.5803646261
 20
1137.6287423153
 30
0.0
 11
5770.7172844712
 21
982.3670625341
 31
0.0
  0
LINE
  5
1A7
330
1F
100
AcDbEntity
  8
0
  6
Continuous
 62
     7
370
    15
100
AcDbLine
 10
5804.443444781
 20
982.3670625341
 30
0.0
 11
5812.5803646261
 21
1137.6287423153
 31
0.0
  0
ARC
  5
1A8
330
1F
100
AcDbEntity
  8
0
  6
Continuous
 62
     7
370
    15
100
AcDbCircle
 10
6480.7104321449
 20
982.6287423153
 30
0.0
 40
5.000000000000114
100
AcDbArc
 50
183.0
 51
270.0
  0
ARC
  5
1A9
330
1F
100
AcDbEntity
  8
0
  6
Continuous
 62
     7
370
    15
100
AcDbCircle
 10
6504.4502971072
 20
982.6287423153
 30
0.0
 40
5.000000000000114
100
AcDbArc
 50
270.0
 51
357.0
  0
ARC
  5
1AA
330
1F
100
AcDbEntity
  8
0
  6
Continuous
 62
     7
370
    15
100
AcDbCircle
 10
5775.7104321449
 20
982.6287423153
 30
0.0
 40
5.000000000000114
100
AcDbArc
 50
183.0
 51
270.0
  0
ARC
  5
1AB
330
1F
100
AcDbEntity
  8
0
  6
Continuous
 62
     7
370
    15
100
AcDbCircle
 10
5799.4502971072
 20
982.6287423153
 30
0.0
 40
5.000000000000114
100
AcDbArc
 50
270.0
 51
357.0
  0
LINE
  5
1AC
330
1F
100
AcDbEntity
  8
0
  6
Continuous
 62
     7
370
    15
100
AcDbLine
 10
6552.5803646261
 20
1147.6287423153
 30
0.0
 11
6552.5803646261
 21
1627.6287423153
 31
0.0
  0
LINE
  5
1AD
330
1F
100
AcDbEntity
  8
0
  6
Continuous
 62
     7
370
    15
100
AcDbLine
 10
5752.5803646261
 20
1147.6287423153
 30
0.0
 11
6552.5803646261
 21
1147.6287423153
 31
0.0
  0
LINE
  5
1AE
330
1F
100
AcDbEntity
  8
0
  6
Continuous
 62
     7
370
    15
100
AcDbLine
 10
5752.5803646261
 20
1627.6287423153
 30
0.0
 11
5752.5803646261
 21
1147.6287423153
 31
0.0
  0
LINE
  5
1AF
330
1F
100
AcDbEntity
  8
0
  6
Continuous
 62
     7
370
    15
100
AcDbLine
 10
6552.5803646261
 20
1627.6287423153
 30
0.0
 11
5752.5803646261
 21
1627.6287423153
 31
0.0
  0
LINE
  5
1B0
330
1F
100
AcDbEntity
  8
0
  6
Continuous
 62
     7
370
    15
100
AcDbLine
 10
6552.5803646261
 20
1137.6287423153
 30
0.0
 11
5752.5803646261
 21
1137.6287423153
 31
0.0
  0
LINE
  5
1B1
330
1F
100
AcDbEntity
  8
0
  6
Continuous
 62
     7
370
    15
100
AcDbLine
 10
5752.5803646261
 20
1137.6287423153
 30
0.0
 11
5752.5803646261
 21
1147.6287423153
 31
0.0
  0
LINE
  5
1B2
330
1F
100
AcDbEntity
  8
0
  6
Continuous
 62
     7
370
    15
100
AcDbLine
 10
6552.5803646261
 20
1147.6287423153
 30
0.0
 11
6552.5803646261
 21
1137.6287423153
 31
0.0
  0
LINE
  5
1B3
330
1F
100
AcDbEntity
  8
0
  6
Continuous
 62
     7
370
    15
100
AcDbLine
 10
5752.5803646261
 20
1637.6287423153
 30
0.0
 11
6552.5803646261
 21
1637.6287423153
 31
0.0
  0
LINE
  5
1B4
330
1F
100
AcDbEntity
  8
0
  6
Continuous
 62
     7
370
    15
100
AcDbLine
 10
6552.5803646261
 20
1637.6287423153
 30
0.0
 11
6552.5803646261
 21
1627.6287423153
 31
0.0
  0
LINE
  5
1B5
330
1F
100
AcDbEntity
  8
0
  6
Continuous
 62
     7
370
    15
100
AcDbLine
 10
5752.5803646261
 20
1627.6287423153
 30
0.0
 11
5752.5803646261
 21
1637.6287423153
 31
0.0
  0
LINE
  5
1B6
330
1F
100
AcDbEntity
  8
0
  6
Continuous
 62
     7
370
    15
100
AcDbLine
 10
6562.5803646261
 20
1627.6287423153
 30
0.0
 11
6552.5803646261
 21
1627.6287423153
 31
0.0
  0
ARC
  5
1B7
330
1F
100
AcDbEntity
  8
0
  6
Continuous
 62
     7
370
    15
100
AcDbCircle
 10
6552.5803646261
 20
1627.6287423153
 30
0.0
 40
10.00000000000091
100
AcDbArc
 50
0.0
 51
90.0
  0
LINE
  5
1B8
330
1F
100
AcDbEntity
  8
0
  6
Continuous
 62
     7
370
    15
100
AcDbLine
 10
6562.5803646261
 20
1627.6287423153
 30
0.0
 11
6562.5803646261
 21
1147.6287423153
 31
0.0
  0
LINE
  5
1B9
330
1F
100
AcDbEntity
  8
0
  6
Continuous
 62
     7
370
    15
100
AcDbLine
 10
6562.5803646261
 20
1147.6287423153
 30
0.0
 11
6552.5803646261
 21
1147.6287423153
 31
0.0
  0
ARC
  5
1BA
330
1F
100
AcDbEntity
  8
0
  6
Continuous
 62
     7
370
    15
100
AcDbCircle
 10
6552.5803646261
 20
1147.6287423153
 30
0.0
 40
10.00000000000091
100
AcDbArc
 50
270.0
 51
0.0
  0
LINE
  5
1BB
330
1F
100
AcDbEntity
  8
0
  6
Continuous
 62
     7
370
    15
100
AcDbLine
 10
5752.5803646261
 20
1147.6287423153
 30
0.0
 11
5742.5803646261
 21
1147.6287423153
 31
0.0
  0
LINE
  5
1BC
330
1F
100
AcDbEntity
  8
0
  6
Continuous
 62
     7
370
    15
100
AcDbLine
 10
5742.5803646261
 20
1147.6287423153
 30
0.0
 11
5742.5803646261
 21
1627.6287423153
 31
0.0
  0
LINE
  5
1BD
330
1F
100
AcDbEntity
  8
0
  6
Continuous
 62
     7
370
    15
100
AcDbLine
 10
5752.5803646261
 20
1627.6287423153
 30
0.0
 11
5742.5803646261
 21
1627.6287423153
 31
0.0
  0
ARC
  5
1BE
330
1F
100
AcDbEntity
  8
0
  6
Continuous
 62
     7
370
    15
100
AcDbCircle
 10
5752.5803646261
 20
1147.6287423153
 30
0.0
 40
10.0
100
AcDbArc
 50
180.0
 51
270.0
  0
ARC
  5
1BF
330
1F
100
AcDbEntity
  8
0
  6
Continuous
 62
     7
370
    15
100
AcDbCircle
 10
5752.5803646261
 20
1627.6287423153
 30
0.0
 40
10.0
100
AcDbArc
 50
90.0
 51
180.0
  0
LINE
  5
1C0
330
1F
100
AcDbEntity
  8
0
  6
Continuous
 62
     7
370
    15
100
AcDbLine
 10
6562.5803646261
 20
1743.3608984656
 30
0.0
 11
6552.5803646261
 21
1743.3608984656
 31
0.0
  0
LINE
  5
1C1
330
1F
100
AcDbEntity
  8
0
  6
Continuous
 62
     7
370
    15
100
AcDbLine
 10
6556.2301415826
 20
1752.671061094
 30
0.0
 11
6552.5803646261
 21
1743.3608984656
 31
0.0
  0
ARC
  5
1C2
330
1F
100
AcDbEntity
  8
0
  6
Continuous
 62
     7
370
    15
100
AcDbCircle
 10
6552.5803646261
 20
1743.3608984656
 30
0.0
 40
10.00000000000091
100
AcDbArc
 50
0.0
 51
68.5937899368
  0
LINE
  5
1C3
330
1F
100
AcDbEntity
  8
0
  6
Continuous
 62
     7
370
    15
100
AcDbLine
 10
6552.5803646261
 20
1743.3608984656
 30
0.0
 11
6447.2086361286
 21
1784.6688027303
 31
0.0
  0
LINE
  5
1C4
330
1F
100
AcDbEntity
  8
0
  6
Continuous
 62
     7
370
    15
100
AcDbLine
 10
6562.5803646261
 20
1743.3608984656
 30
0.0
 11
6562.5803646261
 21
1627.6287423153
 31
0.0
  0
LINE
  5
1C5
330
1F
100
AcDbEntity
  8
0
  6
Continuous
 62
     7
370
    15
100
AcDbLine
 10
6447.2086361286
 20
1784.6688027303
 30
0.0
 11
6450.8584130852
 21
1793.9789653587
 31
0.0
  0
LINE
  5
1C6
330
1F
100
AcDbEntity
  8
0
  6
Continuous
 62
     7
370
    15
100
AcDbLine
 10
6450.8584130852
 20
1793.9789653587
 30
0.0
 11
6556.2301415826
 21
1752.671061094
 31
0.0
  0
LINE
  5
1C7
330
1F
100
AcDbEntity
  8
0
  6
Continuous
 62
     7
370
    15
100
AcDbLine
 10
6378.824930107
 20
1637.6287423153
 30
0.0
 11
6437.8984735002
 21
1788.3185796869
 31
0.0
  0
LINE
  5
1C8
330
1F
100
AcDbEntity
  8
0
  6
Continuous
 62
     7
370
    15
100
AcDbLine
 10
6447.2086361286
 20
1784.6688027303
 30
0.0
 11
6437.8984735002
 21
1788.3185796869
 31
0.0
  0
ARC
  5
1C9
330
1F
100
AcDbEntity
  8
0
  6
Continuous
 62
     7
370
    15
100
AcDbCircle
 10
6447.2086361286
 20
1784.6688027303
 30
0.0
 40
10.00000000000034
100
AcDbArc
 50
68.5937899368
 51
158.5937899368
  0
LINE
  5
1CA
330
1F
100
AcDbEntity
  8
0
  6
Continuous
 62
     7
370
    15
100
AcDbLine
 10
6492.5803646261
 20
977.6287423153
 30
0.0
 11
6480.7104321449
 21
977.6287423153
 31
0.0
  0
LINE
  5
1CB
330
1F
100
AcDbEntity
  8
0
  6
Continuous
 62
     7
370
    15
100
AcDbLine
 10
6504.4502971072
 20
977.6287423153
 30
0.0
 11
6492.5803646261
 21
977.6287423153
 31
0.0
  0
LINE
  5
1CC
330
1F
100
AcDbEntity
  8
0
  6
Continuous
 62
     7
370
    15
100
AcDbLine
 10
5787.5803646261
 20
977.6287423153
 30
0.0
 11
5775.7104321449
 21
977.6287423153
 31
0.0
  0
LINE
  5
1CD
330
1F
100
AcDbEntity
  8
0
  6
Continuous
 62
     7
370
    15
100
AcDbLine
 10
5799.4502971072
 20
977.6287423153
 30
0.0
 11
5787.5803646261
 21
977.6287423153
 31
0.0
  0
LINE
  5
1CE
330
1F
100
AcDbEntity
  8
0
  6
Continuous
 62
     7
370
    15
100
AcDbLine
 10
5727.5803646261
 20
1267.6287423153
 30
0.0
 11
5727.5803646261
 21
1277.6287423153
 31
0.0
  0
LINE
  5
1CF
330
1F
100
AcDbEntity
  8
0
  6
Continuous
 62
     7
370
    15
100
AcDbLine
 10
5742.5803646261
 20
1267.6287423153
 30
0.0
 11
5727.5803646261
 21
1267.6287423153
 31
0.0
  0
LINE
  5
1D0
330
1F
100
AcDbEntity
  8
0
  6
Continuous
 62
     7
370
    15
100
AcDbLine
 10
5727.5803646261
 20
1407.6287423153
 30
0.0
 11
5727.5803646261
 21
1277.6287423153
 31
0.0
  0
LINE
  5
1D1
330
1F
100
AcDbEntity
  8
0
  6
Continuous
 62
     7
370
    15
100
AcDbLine
 10
5727.5803646261
 20
1417.6287423153
 30
0.0
 11
5727.5803646261
 21
1407.6287423153
 31
0.0
  0
LINE
  5
1D2
330
1F
100
AcDbEntity
  8
0
  6
Continuous
 62
     7
370
    15
100
AcDbLine
 10
5727.5803646261
 20
1417.6287423153
 30
0.0
 11
5742.5803646261
 21
1417.6287423153
 31
0.0
  0
LINE
  5
1D3
330
1F
100
AcDbEntity
  8
0
  6
Continuous
 62
     7
370
    15
100
AcDbLine
 10
5717.5803646261
 20
1277.6287423153
 30
0.0
 11
5727.5803646261
 21
1277.6287423153
 31
0.0
  0
ARC
  5
1D4
330
1F
100
AcDbEntity
  8
0
  6
Continuous
 62
     7
370
    15
100
AcDbCircle
 10
5727.5803646261
 20
1277.6287423153
 30
0.0
 40
10.0
100
AcDbArc
 50
180.0
 51
270.0
  0
LINE
  5
1D5
330
1F
100
AcDbEntity
  8
0
  6
Continuous
 62
     7
370
    15
100
AcDbLine
 10
5717.5803646261
 20
1407.6287423153
 30
0.0
 11
5727.5803646261
 21
1407.6287423153
 31
0.0
  0
ARC
  5
1D6
330
1F
100
AcDbEntity
  8
0
  6
Continuous
 62
     7
370
    15
100
AcDbCircle
 10
5727.5803646261
 20
1407.6287423153
 30
0.0
 40
10.00000000000023
100
AcDbArc
 50
90.0
 51
180.0
  0
LINE
  5
1D7
330
1F
100
AcDbEntity
  8
0
  6
Continuous
 62
     7
370
    15
100
AcDbLine
 10
5717.5803646261
 20
1277.6287423153
 30
0.0
 11
5717.5803646261
 21
1407.6287423153
 31
0.0
  0
LINE
  5
1D8
330
1F
100
AcDbEntity
  8
0
  6
Continuous
 62
     8
370
    15
100
AcDbLine
 10
6447.2086361286
 20
1784.6688027303
 30
0.0
 11
6389.5658810432
 21
1637.6287423153
 31
0.0
  0
LINE
  5
1D9
330
1F
100
AcDbEntity
  8
0
  6
Continuous
 62
     8
370
    15
100
AcDbLine
 10
6552.5803646261
 20
1637.6287423153
 30
0.0
 11
6552.5803646261
 21
1743.3608984656
 31
0.0
  0
LINE
  5
1DA
330
1F
100
AcDbEntity
  8
0
  6
Continuous
 62
     8
370
    15
100
AcDbLine
 10
6475.7172844712
 20
982.3670625341
 30
0.0
 11
6509.443444781
 21
982.3670625341
 31
0.0
  0
LINE
  5
1DB
330
1F
100
AcDbEntity
  8
0
  6
Continuous
 62
     8
370
    15
100
AcDbLine
 10
5770.7172844712
 20
982.3670625341
 30
0.0
 11
5804.443444781
 21
982.3670625341
 31
0.0
  0
LINE
  5
1DC
330
1F
100
AcDbEntity
  8
0
  6
Continuous
 62
     8
370
    15
100
AcDbLine
 10
5727.5803646261
 20
1277.6287423153
 30
0.0
 11
5742.5803646261
 21
1277.6287423153
 31
0.0
  0
LINE
  5
1DD
330
1F
100
AcDbEntity
  8
0
  6
Continuous
 62
     8
370
    15
100
AcDbLine
 10
5742.5803646261
 20
1407.6287423153
 30
0.0
 11
5727.5803646261
 21
1407.6287423153
 31
0.0
  0
INSERT
  5
1E4
330
1F
100
AcDbEntity
  8
ON_PAGE_NOTES
100
AcDbBlockReference
  2
SW_NOTE_0
 10
6127.0466892979
 20
1356.0170151289
 30
0.0
  0
ARC
  5
1E5
330
1F
100
AcDbEntity
  8
0
  6
Continuous
 62
     7
370
    15
100
AcDbCircle
 10
6328.5359620106
 20
3850.0895766898
 30
0.0
 40
10.0
100
AcDbArc
 50
119.9973117336
 51
180.0
  0
LINE
  5
1E6
330
1F
100
AcDbEntity
  8
0
  6
Continuous
 62
     7
370
    15
100
AcDbLine
 10
6318.5359620106
 20
3850.0895766898
 30
0.0
 11
6318.5359620106
 21
3458.1499869847
 31
0.0
  0
LINE
  5
1E7
330
1F
100
AcDbEntity
  8
0
  6
Continuous
 62
     7
370
    15
100
AcDbLine
 10
6889.2217932967
 20
4185.3133100427
 30
0.0
 11
6323.5363683474
 21
3858.7500653136
 31
0.0
  0
ARC
  5
1E8
330
1F
100
AcDbEntity
  8
0
  6
Continuous
 62
     7
370
    15
100
AcDbCircle
 10
6406.3177079411
 20
3413.2475408344
 30
0.0
 40
10.00000000000019
100
AcDbArc
 50
240.0026882663
 51
299.9973117337
  0
LINE
  5
1E9
330
1F
100
AcDbEntity
  8
0
  6
Continuous
 62
     7
370
    15
100
AcDbLine
 10
6323.5363683474
 20
3449.4894983608
 30
0.0
 11
6401.318114278
 21
3404.5870522106
 31
0.0
  0
LINE
  5
1EA
330
1F
100
AcDbEntity
  8
0
  6
Continuous
 62
     7
370
    15
100
AcDbLine
 10
6411.3173016043
 20
3404.5870522106
 30
0.0
 11
6977.0027265536
 21
3731.1502969397
 31
0.0
  0
ARC
  5
1EB
330
1F
100
AcDbEntity
  8
0
  6
Continuous
 62
     7
370
    15
100
AcDbCircle
 10
6328.5359620106
 20
3458.1499869846
 30
0.0
 40
10.0
100
AcDbArc
 50
180.0
 51
240.0026882664
  0
ARC
  5
1EC
330
1F
100
AcDbEntity
  8
0
  6
Continuous
 62
     7
370
    15
100
AcDbCircle
 10
6972.0031328904
 20
4131.7503752686
 30
0.0
 40
10.0
100
AcDbArc
 50
0.0
 51
60.0026882663
  0
LINE
  5
1ED
330
1F
100
AcDbEntity
  8
0
  6
Continuous
 62
     7
370
    15
100
AcDbLine
 10
6982.0031328904
 20
3739.8107855635
 30
0.0
 11
6982.0031328904
 21
4131.7503752686
 31
0.0
  0
LINE
  5
1EE
330
1F
100
AcDbEntity
  8
0
  6
Continuous
 62
     7
370
    15
100
AcDbLine
 10
6977.0027265536
 20
4140.4108638924
 30
0.0
 11
6899.220980623
 21
4185.3133100427
 31
0.0
  0
ARC
  5
1EF
330
1F
100
AcDbEntity
  8
0
  6
Continuous
 62
     7
370
    15
100
AcDbCircle
 10
6894.2213869599
 20
4176.6528214189
 30
0.0
 40
9.999999999999734
100
AcDbArc
 50
60.0026882664
 51
119.9973117337
  0
ARC
  5
1F0
330
1F
100
AcDbEntity
  8
0
  6
Continuous
 62
     7
370
    15
100
AcDbCircle
 10
6972.0031328904
 20
3739.8107855635
 30
0.0
 40
10.00000000000013
100
AcDbArc
 50
299.9973117337
 51
0.0
  0
ARC
  5
1F1
330
1F
100
AcDbEntity
  8
0
  6
Continuous
 62
     7
370
    15
100
AcDbCircle
 10
4935.5356030731
 20
4654.2515668352
 30
0.0
 40
10.00000000000091
100
AcDbArc
 50
119.9973117337
 51
180.0
  0
LINE
  5
1F2
330
1F
100
AcDbEntity
  8
0
  6
Continuous
 62
     7
370
    15
100
AcDbLine
 10
4925.5356030731
 20
4654.2515668352
 30
0.0
 11
4925.5356030731
 21
4262.31197713
 31
0.0
  0
LINE
  5
1F3
330
1F
100
AcDbEntity
  8
0
  6
Continuous
 62
     7
370
    15
100
AcDbLine
 10
5496.2214343592
 20
4989.4753001881
 30
0.0
 11
4930.5360094099
 21
4662.912055459
 31
0.0
  0
ARC
  5
1F4
330
1F
100
AcDbEntity
  8
0
  6
Continuous
 62
     7
370
    15
100
AcDbCircle
 10
5013.3173490036
 20
4217.4095309798
 30
0.0
 40
10.00000000000047
100
AcDbArc
 50
240.0026882663
 51
294.7361038314
  0
LINE
  5
1F5
330
1F
100
AcDbEntity
  8
0
  6
Continuous
 62
     7
370
    15
100
AcDbLine
 10
4930.5360094099
 20
4253.6514885062
 30
0.0
 11
5008.3177553405
 21
4208.749042356
 31
0.0
  0
ARC
  5
1F6
330
1F
100
AcDbEntity
  8
0
  6
Continuous
 62
     7
370
    15
100
AcDbCircle
 10
4935.5356030731
 20
4262.31197713
 30
0.0
 40
10.00000000000091
100
AcDbArc
 50
180.0
 51
240.0026882664
  0
ARC
  5
1F7
330
1F
100
AcDbEntity
  8
0
  6
Continuous
 62
     7
370
    15
100
AcDbCircle
 10
5501.2210280224
 20
4980.8148115643
 30
0.0
 40
10.00000000000052
100
AcDbArc
 50
85.8425324485
 51
119.9973117336
  0
ARC
  5
1F8
330
1F
100
AcDbEntity
  8
0
  6
Continuous
 62
     7
370
    15
100
AcDbCircle
 10
5646.1779181656
 20
3937.8070036887
 30
0.0
 40
9.999999999999963
100
AcDbArc
 50
240.0026882664
 51
294.7361038314
  0
LINE
  5
1F9
330
1F
100
AcDbEntity
  8
0
  6
Continuous
 62
     7
370
    15
100
AcDbLine
 10
5004.7822214345
 20
4296.5301653851
 30
0.0
 11
5641.1783245024
 21
3929.1465150649
 31
0.0
  0
ARC
  5
1FA
330
1F
100
AcDbEntity
  8
0
  6
Continuous
 62
     7
370
    15
100
AcDbCircle
 10
6038.6221817241
 20
4270.5105602646
 30
0.0
 40
10.00000000000109
100
AcDbArc
 50
5.2692727012
 51
60.0026882664
  0
LINE
  5
1FB
330
1F
100
AcDbEntity
  8
0
  6
Continuous
 62
     7
370
    15
100
AcDbLine
 10
6043.6217753873
 20
4279.1710488884
 30
0.0
 11
5407.2256723194
 21
4646.5546992087
 31
0.0
  0
ARC
  5
1FC
330
1F
100
AcDbEntity
  8
0
  6
Continuous
 62
     7
370
    15
100
AcDbCircle
 10
5009.7818150977
 20
4411.3409595541
 30
0.0
 40
10.0
100
AcDbArc
 50
119.9973117337
 51
180.0
  0
LINE
  5
1FD
330
1F
100
AcDbEntity
  8
0
  6
Continuous
 62
     7
370
    15
100
AcDbLine
 10
4999.7818150977
 20
4411.3409595541
 30
0.0
 11
4999.7818150977
 21
4305.1906540089
 31
0.0
  0
LINE
  5
1FE
330
1F
100
AcDbEntity
  8
0
  6
Continuous
 62
     7
370
    15
100
AcDbLine
 10
5397.2264849931
 20
4646.5546992087
 30
0.0
 11
5004.7822214345
 21
4420.0014481779
 31
0.0
  0
ARC
  5
1FF
330
1F
100
AcDbEntity
  8
0
  6
Continuous
 62
     7
370
    15
100
AcDbCircle
 10
5009.7818150977
 20
4305.1906540089
 30
0.0
 40
10.00000000000019
100
AcDbArc
 50
180.0
 51
240.0026882663
  0
ARC
  5
200
330
1F
100
AcDbEntity
  8
0
  6
Continuous
 62
     7
370
    15
100
AcDbCircle
 10
5402.2260786562
 20
4637.8942105849
 30
0.0
 40
10.00000000000098
100
AcDbArc
 50
60.0026882663
 51
119.9973117336
  0
ARC
  5
201
330
1F
100
AcDbEntity
  8
0
  6
Continuous
 62
     7
370
    15
100
AcDbCircle
 10
6314.3938263869
 20
3466.3140681029
 30
0.0
 40
9.999999999999734
100
AcDbArc
 50
240.0026882663
 51
294.7361038315
  0
LINE
  5
202
330
1F
100
AcDbEntity
  8
0
  6
Continuous
 62
     7
370
    15
100
AcDbLine
 10
5022.4598909642
 20
4200.5849612377
 30
0.0
 11
6309.3942327237
 21
3457.6535794791
 31
0.0
  0
LINE
  5
203
330
1F
100
AcDbEntity
  8
0
  6
Continuous
 62
     7
370
    15
100
AcDbLine
 10
6272.8671234795
 20
3478.7402308038
 30
0.0
 11
6279.8646558445
 21
3369.7898528385
 31
0.0
  0
LINE
  5
204
330
1F
100
AcDbEntity
  8
0
  6
Continuous
 62
     7
370
    15
100
AcDbLine
 10
6313.5676578699
 20
3369.7898528385
 30
0.0
 11
6319.0411802193
 21
3455.0116564196
 31
0.0
  0
ARC
  5
205
330
1F
100
AcDbEntity
  8
0
  6
Continuous
 62
     7
370
    15
100
AcDbCircle
 10
6880.0792513361
 20
4279.3169312814
 30
0.0
 40
10.00000000000091
100
AcDbArc
 50
0.0
 51
60.0026882663
  0
LINE
  5
206
330
1F
100
AcDbEntity
  8
0
  6
Continuous
 62
     7
370
    15
100
AcDbLine
 10
6890.0792513361
 20
4185.7546186301
 30
0.0
 11
6890.0792513361
 21
4279.3169312814
 31
0.0
  0
LINE
  5
207
330
1F
100
AcDbEntity
  8
0
  6
Continuous
 62
     7
370
    15
100
AcDbLine
 10
6885.0788449993
 20
4287.9774199052
 30
0.0
 11
5598.1445032398
 21
5030.9088016639
 31
0.0
  0
LWPOLYLINE
  5
208
330
1F
100
AcDbEntity
  8
0
  6
Continuous
 62
     7
370
    15
100
AcDbPolyline
 90
       18
 70
   128
 43
0.0
 10
6279.8849609087
 20
3369.7220994081
 10
6280.0978478129
 20
3368.2517569193
 10
6280.627330124
 20
3366.680990578
 10
6281.424854611
 20
3365.2101100948
 10
6282.4812466
 20
3363.8438853335
 10
6283.7967669257
 20
3362.5887199926
 10
6285.3709526843
 20
3361.4596488491
 10
6287.1866413631
 20
3360.4824732521
 10
6289.2020593657
 20
3359.6858107626
 10
6291.3571318853
 20
3359.0906193666
 10
6293.6021836406
 20
3358.7033985571
 10
6295.8966772053
 20
3358.5249979842
 10
6298.204404927
 20
3358.555273962
 10
6300.4908851666
 20
3358.7946347216
 10
6302.7207518585
 20
3359.2443027344
 10
6304.8622485425
 20
3359.907988534
 10
6306.8822157304
 20
3360.7928513425
 10
6307.6092634384
 20
3361.1886205592
  0
LWPOLYLINE
  5
209
330
1F
100
AcDbEntity
  8
0
  6
Continuous
 62
     7
370
    15
100
AcDbPolyline
 90
        8
 70
   128
 43
0.0
 10
6307.6092634384
 20
3361.1886205592
 10
6308.6231335522
 20
3361.8266461979
 10
6310.2651658907
 20
3363.1441902504
 10
6311.4764801571
 20
3364.4685904533
 10
6312.4169510351
 20
3365.8925222766
 10
6313.0839915719
 20
3367.3948685683
 10
6313.5004113095
 20
3369.1275072283
 10
6313.5282987066
 20
3369.7844449977
  0
ARC
  5
20A
330
1F
100
AcDbEntity
  8
0
  6
Continuous
 62
     7
370
    15
100
AcDbCircle
 10
6616.6318409272
 20
4176.5269442317
 30
0.0
 40
2.202580703625687
100
AcDbArc
 50
55.1319395986
 51
93.4204593409
  0
LWPOLYLINE
  5
20B
330
1F
100
AcDbEntity
  8
0
  6
Continuous
 62
     7
370
    15
100
AcDbPolyline
 90
       20
 70
   128
 43
0.0
 10
6617.8910311839
 20
4178.3340971454
 10
6618.1966525608
 20
4178.1420870471
 10
6618.9625901415
 20
4177.5265632978
 10
6619.7626787305
 20
4176.6688928114
 10
6620.5441327967
 20
4175.5779780981
 10
6621.2621184179
 20
4174.2714680188
 10
6621.8741503655
 20
4172.7836871862
 10
6622.346052903
 20
4171.1587323539
 10
6622.6528475487
 20
4169.4491638166
 10
6622.7801795016
 20
4167.7139886249
 10
6622.7258255932
 20
4166.0160372027
 10
6622.5007487824
 20
4164.4169948553
 10
6622.1287350756
 20
4162.9721223175
 10
6621.6452461968
 20
4161.726967212
 10
6621.0956411641
 20
4160.7138211163
 10
6620.5325296459
 20
4159.9482883365
 10
6620.0071995893
 20
4159.4219835912
 10
6619.5603563872
 20
4159.1035555325
 10
6619.2059724207
 20
4158.9419422023
 10
6618.9698356801
 20
4158.8960515598
  0
ARC
  5
20C
330
1F
100
AcDbEntity
  8
0
  6
Continuous
 62
     7
370
    15
100
AcDbCircle
 10
6472.8534620859
 20
4259.5284356004
 30
0.0
 40
2.202580703598069
100
AcDbArc
 50
55.1319395984
 51
93.4204593412
  0
LWPOLYLINE
  5
20D
330
1F
100
AcDbEntity
  8
0
  6
Continuous
 62
     7
370
    15
100
AcDbPolyline
 90
       20
 70
   128
 43
0.0
 10
6474.1126523426
 20
4261.335588514
 10
6474.4182737196
 20
4261.1435784157
 10
6475.1842113002
 20
4260.5280546664
 10
6475.9842998893
 20
4259.67038418
 10
6476.7657539554
 20
4258.5794694667
 10
6477.4837395767
 20
4257.2729593874
 10
6478.0957715242
 20
4255.7851785549
 10
6478.5676740617
 20
4254.1602237226
 10
6478.8744687074
 20
4252.4506551852
 10
6479.0018006604
 20
4250.7154799936
 10
6478.9474467519
 20
4249.0175285714
 10
6478.7223699411
 20
4247.418486224
 10
6478.3503562344
 20
4245.9736136862
 10
6477.8668673556
 20
4244.7284585807
 10
6477.3172623228
 20
4243.715312485
 10
6476.7541508047
 20
4242.9497797052
 10
6476.2288207481
 20
4242.4234749598
 10
6475.781977546
 20
4242.1050469011
 10
6475.4275935795
 20
4241.943433571
 10
6475.1914568389
 20
4241.8975429284
  0
ARC
  5
20E
330
1F
100
AcDbEntity
  8
0
  6
Continuous
 62
     7
370
    15
100
AcDbCircle
 10
6329.0750832446
 20
4342.529926969
 30
0.0
 40
2.202580703622996
100
AcDbArc
 50
55.1319395985
 51
93.4204593409
  0
LWPOLYLINE
  5
20F
330
1F
100
AcDbEntity
  8
0
  6
Continuous
 62
     7
370
    15
100
AcDbPolyline
 90
       20
 70
   128
 43
0.0
 10
6330.3342735014
 20
4344.3370798826
 10
6330.6398948783
 20
4344.1450697844
 10
6331.405832459
 20
4343.529546035
 10
6332.205921048
 20
4342.6718755486
 10
6332.9873751142
 20
4341.5809608354
 10
6333.7053607354
 20
4340.274450756
 10
6334.317392683
 20
4338.7866699235
 10
6334.7892952205
 20
4337.1617150912
 10
6335.0960898661
 20
4335.4521465538
 10
6335.2234218191
 20
4333.7169713622
 10
6335.1690679106
 20
4332.01901994
 10
6334.9439910998
 20
4330.4199775926
 10
6334.5719773931
 20
4328.9751050548
 10
6334.0884885143
 20
4327.7299499493
 10
6333.5388834815
 20
4326.7168038536
 10
6332.9757719634
 20
4325.9512710738
 10
6332.4504419068
 20
4325.4249663284
 10
6332.0035987047
 20
4325.1065382698
 10
6331.6492147382
 20
4324.9449249396
 10
6331.4130779976
 20
4324.899034297
  0
ARC
  5
210
330
1F
100
AcDbEntity
  8
0
  6
Continuous
 62
     7
370
    15
100
AcDbCircle
 10
6185.2967044034
 20
4425.5314183376
 30
0.0
 40
2.202580703640972
100
AcDbArc
 50
55.1319395988
 51
93.4204593409
  0
LWPOLYLINE
  5
211
330
1F
100
AcDbEntity
  8
0
  6
Continuous
 62
     7
370
    15
100
AcDbPolyline
 90
       20
 70
   128
 43
0.0
 10
6186.5558946601
 20
4427.3385712513
 10
6186.861516037
 20
4427.146561153
 10
6187.6274536177
 20
4426.5310374037
 10
6188.4275422067
 20
4425.6733669173
 10
6189.2089962729
 20
4424.582452204
 10
6189.9269818941
 20
4423.2759421247
 10
6190.5390138417
 20
4421.7881612921
 10
6191.0109163792
 20
4420.1632064598
 10
6191.3177110249
 20
4418.4536379225
 10
6191.4450429779
 20
4416.7184627309
 10
6191.3906890694
 20
4415.0205113087
 10
6191.1656122586
 20
4413.4214689613
 10
6190.7935985518
 20
4411.9765964235
 10
6190.3101096731
 20
4410.731441318
 10
6189.7605046403
 20
4409.7182952222
 10
6189.1973931221
 20
4408.9527624424
 10
6188.6720630655
 20
4408.4264576971
 10
6188.2252198634
 20
4408.1080296384
 10
6187.8708358969
 20
4407.9464163083
 10
6187.6346991564
 20
4407.9005256657
  0
ARC
  5
212
330
1F
100
AcDbEntity
  8
0
  6
Continuous
 62
     7
370
    15
100
AcDbCircle
 10
6041.5183255621
 20
4508.5329097063
 30
0.0
 40
2.202580703633736
100
AcDbArc
 50
55.1319395987
 51
93.420459341
  0
LWPOLYLINE
  5
213
330
1F
100
AcDbEntity
  8
0
  6
Continuous
 62
     7
370
    15
100
AcDbPolyline
 90
       20
 70
   128
 43
0.0
 10
6042.7775158188
 20
4510.3400626199
 10
6043.0831371958
 20
4510.1480525216
 10
6043.8490747764
 20
4509.5325287723
 10
6044.6491633655
 20
4508.6748582859
 10
6045.4306174316
 20
4507.5839435726
 10
6046.1486030529
 20
4506.2774334933
 10
6046.7606350004
 20
4504.7896526608
 10
6047.2325375379
 20
4503.1646978285
 10
6047.5393321836
 20
4501.4551292911
 10
6047.6666641366
 20
4499.7199540995
 10
6047.6123102281
 20
4498.0220026773
 10
6047.3872334173
 20
4496.4229603299
 10
6047.0152197106
 20
4494.9780877921
 10
6046.5317308318
 20
4493.7329326866
 10
6045.982125799
 20
4492.7197865909
 10
6045.4190142809
 20
4491.9542538111
 10
6044.8936842243
 20
4491.4279490657
 10
6044.4468410222
 20
4491.109521007
 10
6044.0924570557
 20
4490.9479076769
 10
6043.8563203151
 20
4490.9020170343
  0
ARC
  5
214
330
1F
100
AcDbEntity
  8
0
  6
Continuous
 62
     7
370
    15
100
AcDbCircle
 10
5897.7399467208
 20
4591.5344010749
 30
0.0
 40
2.20258070363299
100
AcDbArc
 50
55.1319395987
 51
93.4204593409
  0
LWPOLYLINE
  5
215
330
1F
100
AcDbEntity
  8
0
  6
Continuous
 62
     7
370
    15
100
AcDbPolyline
 90
       20
 70
   128
 43
0.0
 10
5898.9991369776
 20
4593.3415539886
 10
5899.3047583545
 20
4593.1495438903
 10
5900.0706959352
 20
4592.534020141
 10
5900.8707845242
 20
4591.6763496546
 10
5901.6522385904
 20
4590.5854349413
 10
5902.3702242116
 20
4589.278924862
 10
5902.9822561592
 20
4587.7911440294
 10
5903.4541586967
 20
4586.1661891971
 10
5903.7609533423
 20
4584.4566206598
 10
5903.8882852953
 20
4582.7214454681
 10
5903.8339313868
 20
4581.023494046
 10
5903.608854576
 20
4579.4244516985
 10
5903.2368408693
 20
4577.9795791607
 10
5902.7533519905
 20
4576.7344240553
 10
5902.2037469577
 20
4575.7212779595
 10
5901.6406354396
 20
4574.9557451797
 10
5901.115305383
 20
4574.4294404344
 10
5900.6684621809
 20
4574.1110123757
 10
5900.3140782144
 20
4573.9493990455
 10
5900.0779414738
 20
4573.903508403
  0
ARC
  5
216
330
1F
100
AcDbEntity
  8
0
  6
Continuous
 62
     7
370
    15
100
AcDbCircle
 10
5753.9615678796
 20
4674.5358924435
 30
0.0
 40
2.202580703654954
100
AcDbArc
 50
55.1319395988
 51
93.4204593414
  0
LWPOLYLINE
  5
217
330
1F
100
AcDbEntity
  8
0
  6
Continuous
 62
     7
370
    15
100
AcDbPolyline
 90
       20
 70
   128
 43
0.0
 10
5755.2207581363
 20
4676.3430453572
 10
5755.5263795132
 20
4676.1510352589
 10
5756.2923170939
 20
4675.5355115096
 10
5757.0924056829
 20
4674.6778410232
 10
5757.8738597491
 20
4673.5869263099
 10
5758.5918453703
 20
4672.2804162306
 10
5759.2038773179
 20
4670.7926353981
 10
5759.6757798554
 20
4669.1676805658
 10
5759.9825745011
 20
4667.4581120284
 10
5760.1099064541
 20
4665.7229368368
 10
5760.0555525456
 20
4664.0249854146
 10
5759.8304757348
 20
4662.4259430672
 10
5759.458462028
 20
4660.9810705294
 10
5758.9749731493
 20
4659.7359154239
 10
5758.4253681165
 20
4658.7227693282
 10
5757.8622565983
 20
4657.9572365484
 10
5757.3369265418
 20
4657.430931803
 10
5756.8900833396
 20
4657.1125037443
 10
5756.5356993732
 20
4656.9508904142
 10
5756.2995626326
 20
4656.9049997716
  0
LINE
  5
218
330
1F
100
AcDbEntity
  8
0
  6
Continuous
 62
     7
370
    15
100
AcDbLine
 10
5017.4594846274
 20
4289.211737121
 30
0.0
 11
5017.4594846274
 21
4209.2454498615
 31
0.0
  0
LINE
  5
219
330
1F
100
AcDbEntity
  8
0
  6
Continuous
 62
     7
370
    15
100
AcDbLine
 10
5509.015889669
 20
5015.6953847507
 30
0.0
 11
5406.7482581382
 21
4655.4110206052
 31
0.0
  0
ARC
  5
21A
330
1F
100
AcDbEntity
  8
0
  6
Continuous
 62
     7
370
    15
100
AcDbCircle
 10
5610.1831890383
 20
4757.5373838122
 30
0.0
 40
2.202580703623674
100
AcDbArc
 50
55.1319395986
 51
93.4204593408
  0
LWPOLYLINE
  5
21B
330
1F
100
AcDbEntity
  8
0
  6
Continuous
 62
     7
370
    15
100
AcDbPolyline
 90
       20
 70
   128
 43
0.0
 10
5611.442379295
 20
4759.3445367259
 10
5611.748000672
 20
4759.1525266276
 10
5612.5139382527
 20
4758.5370028783
 10
5613.3140268417
 20
4757.6793323919
 10
5614.0954809078
 20
4756.5884176786
 10
5614.8134665291
 20
4755.2819075992
 10
5615.4254984766
 20
4753.7941267667
 10
5615.8974010142
 20
4752.1691719344
 10
5616.2041956598
 20
4750.4596033971
 10
5616.3315276128
 20
4748.7244282054
 10
5616.2771737043
 20
4747.0264767832
 10
5616.0520968935
 20
4745.4274344358
 10
5615.6800831868
 20
4743.982561898
 10
5615.196594308
 20
4742.7374067925
 10
5614.6469892752
 20
4741.7242606968
 10
5614.0838777571
 20
4740.958727917
 10
5613.5585477005
 20
4740.4324231716
 10
5613.1117044984
 20
4740.113995113
 10
5612.7573205319
 20
4739.9523817828
 10
5612.5211837913
 20
4739.9064911403
  0
LINE
  5
21C
330
1F
100
AcDbEntity
  8
0
  6
Continuous
 62
     7
370
    15
100
AcDbLine
 10
5070.7855954623
 20
4172.6871258531
 30
0.0
 11
5077.7831278274
 21
4063.7367478878
 31
0.0
  0
LINE
  5
21D
330
1F
100
AcDbEntity
  8
0
  6
Continuous
 62
     7
370
    15
100
AcDbLine
 10
5111.4861298528
 20
4063.7367478878
 30
0.0
 11
5116.7783726986
 21
4146.1360607099
 31
0.0
  0
ARC
  5
21E
330
1F
100
AcDbEntity
  8
0
  6
Continuous
 62
     7
370
    15
100
AcDbCircle
 10
5027.4594846274
 20
4209.2454498615
 30
0.0
 40
9.999999999999279
100
AcDbArc
 50
180.0
 51
240.0026882664
  0
ARC
  5
21F
330
1F
100
AcDbEntity
  8
0
  6
Continuous
 62
     7
370
    15
100
AcDbCircle
 10
5518.6358458107
 20
5012.9647357746
 30
0.0
 40
10.0000000000009
100
AcDbArc
 50
97.1022586364
 51
164.1532721698
  0
LINE
  5
220
330
1F
100
AcDbEntity
  8
0
  6
Continuous
 62
     7
370
    15
100
AcDbLine
 10
5591.9085036265
 20
5032.1715836867
 30
0.0
 11
5517.3994398607
 21
5022.8880064213
 31
0.0
  0
LWPOLYLINE
  5
221
330
1F
100
AcDbEntity
  8
0
  6
Continuous
 62
     7
370
    15
100
AcDbPolyline
 90
       18
 70
   128
 43
0.0
 10
5077.8034328916
 20
4063.6689944574
 10
5078.0163197957
 20
4062.1986519686
 10
5078.5458021069
 20
4060.6278856273
 10
5079.3433265938
 20
4059.1570051441
 10
5080.3997185829
 20
4057.7907803828
 10
5081.7152389086
 20
4056.535615042
 10
5083.2894246672
 20
4055.4065438984
 10
5085.105113346
 20
4054.4293683014
 10
5087.1205313486
 20
4053.6327058119
 10
5089.2756038682
 20
4053.0375144159
 10
5091.5206556235
 20
4052.6502936064
 10
5093.8151491881
 20
4052.4718930335
 10
5096.1228769099
 20
4052.5021690113
 10
5098.4093571495
 20
4052.7415297709
 10
5100.6392238414
 20
4053.1911977837
 10
5102.7807205254
 20
4053.8548835833
 10
5104.8006877133
 20
4054.7397463918
 10
5105.5277354213
 20
4055.1355156085
  0
LWPOLYLINE
  5
222
330
1F
100
AcDbEntity
  8
0
  6
Continuous
 62
     7
370
    15
100
AcDbPolyline
 90
        8
 70
   128
 43
0.0
 10
5105.5277354213
 20
4055.1355156085
 10
5106.5416055351
 20
4055.7735412472
 10
5108.1836378735
 20
4057.0910852997
 10
5109.39495214
 20
4058.4154855027
 10
5110.3354230179
 20
4059.8394173259
 10
5111.0024635547
 20
4061.3417636176
 10
5111.4188832923
 20
4063.0744022776
 10
5111.4467706895
 20
4063.7313400471
  0
ARC
  5
223
330
1F
100
AcDbEntity
  8
0
  6
Continuous
 62
     7
370
    15
100
AcDbCircle
 10
5593.1449095766
 20
5022.2483130401
 30
0.0
 40
10.00000000000036
100
AcDbArc
 50
60.0026882664
 51
97.1022586364
  0
ARC
  5
224
330
1F
100
AcDbEntity
  8
0
  6
Continuous
 62
     7
370
    15
100
AcDbCircle
 10
5416.36821428
 20
4652.6803716291
 30
0.0
 40
10.00000000000002
100
AcDbArc
 50
164.1532721698
 51
180.0
  0
LINE
  5
225
330
1F
100
AcDbEntity
  8
0
  6
Continuous
 62
     7
370
    15
100
AcDbLine
 10
5406.36821428
 20
4652.6803716291
 30
0.0
 11
5406.36821428
 21
4646.9960077961
 31
0.0
  0
ARC
  5
226
330
1F
100
AcDbEntity
  8
0
  6
Continuous
 62
     7
370
    15
100
AcDbCircle
 10
6296.7161568572
 20
3562.2592722502
 30
0.0
 40
10.00000000000019
100
AcDbArc
 50
240.0026882663
 51
299.9973117337
  0
LINE
  5
227
330
1F
100
AcDbEntity
  8
0
  6
Continuous
 62
     7
370
    15
100
AcDbLine
 10
6301.7157505204
 20
3553.5987836264
 30
0.0
 11
6318.5359620106
 21
3563.3088850344
 31
0.0
  0
LINE
  5
228
330
1F
100
AcDbEntity
  8
0
  6
Continuous
 62
     7
370
    15
100
AcDbLine
 10
5655.3204601261
 20
3920.9824339467
 30
0.0
 11
6291.716563194
 21
3553.5987836264
 31
0.0
  0
LINE
  5
229
330
1F
100
AcDbEntity
  8
0
  6
Continuous
 62
     7
370
    15
100
AcDbLine
 10
6547.7137786811
 20
3988.1649296264
 30
0.0
 11
6057.763911011
 21
4271.0069677702
 31
0.0
  0
ARC
  5
22A
330
1F
100
AcDbEntity
  8
0
  6
Continuous
 62
     7
370
    15
100
AcDbCircle
 10
5660.3200537893
 20
4035.7932281156
 30
0.0
 40
10.00000000000091
100
AcDbArc
 50
119.9973117337
 51
180.0
  0
LINE
  5
22B
330
1F
100
AcDbEntity
  8
0
  6
Continuous
 62
     7
370
    15
100
AcDbLine
 10
5650.3200537893
 20
4035.7932281156
 30
0.0
 11
5650.3200537893
 21
3929.6429225705
 31
0.0
  0
LINE
  5
22C
330
1F
100
AcDbEntity
  8
0
  6
Continuous
 62
     7
370
    15
100
AcDbLine
 10
6047.7647236847
 20
4271.0069677702
 30
0.0
 11
5655.3204601261
 21
4044.4537167394
 31
0.0
  0
ARC
  5
22D
330
1F
100
AcDbEntity
  8
0
  6
Continuous
 62
     7
370
    15
100
AcDbCircle
 10
5660.3200537893
 20
3929.6429225705
 30
0.0
 40
10.00000000000091
100
AcDbArc
 50
180.0
 51
240.0026882664
  0
ARC
  5
22E
330
1F
100
AcDbEntity
  8
0
  6
Continuous
 62
     7
370
    15
100
AcDbCircle
 10
6052.7643173479
 20
4262.3464791464
 30
0.0
 40
10.00000000000098
100
AcDbArc
 50
60.0026882664
 51
119.9973117337
  0
ARC
  5
22F
330
1F
100
AcDbEntity
  8
0
  6
Continuous
 62
     7
370
    15
100
AcDbCircle
 10
6414.5988011429
 20
3800.4064814578
 30
0.0
 40
15.36804807572272
100
AcDbArc
 50
122.60547834
 51
177.3945215143
  0
ARC
  5
230
330
1F
100
AcDbEntity
  8
0
  6
Continuous
 62
     7
370
    15
100
AcDbCircle
 10
6398.0366147393
 20
3800.4064814578
 30
0.0
 40
15.36804807572272
100
AcDbArc
 50
2.6054784857
 51
57.39452166
  0
ARC
  5
231
330
1F
100
AcDbEntity
  8
0
  6
Continuous
 62
     7
370
    15
100
AcDbCircle
 10
6406.3177079411
 20
3814.75220083
 30
0.0
 40
15.37021907911863
100
AcDbArc
 50
242.6096722366
 51
297.3903277634
  0
LINE
  5
232
330
1F
100
AcDbEntity
  8
0
  6
Continuous
 62
     7
370
    15
100
AcDbLine
 10
6413.388775753
 20
3801.1050899804
 30
0.0
 11
6413.388775753
 21
3409.1655002753
 31
0.0
  0
ARC
  5
233
330
1F
100
AcDbEntity
  8
0
  6
Continuous
 62
     7
370
    15
100
AcDbCircle
 10
6406.3177079411
 20
3422.8126111248
 30
0.0
 40
15.37021907912145
100
AcDbArc
 50
242.6096722366
 51
297.3903277634
  0
LINE
  5
234
330
1F
100
AcDbEntity
  8
0
  6
Continuous
 62
     7
370
    15
100
AcDbLine
 10
6399.2466401293
 20
3409.1655002753
 30
0.0
 11
6399.2466401293
 21
3801.1050899804
 31
0.0
  0
LINE
  5
235
330
1F
100
AcDbEntity
  8
0
  6
Continuous
 62
     7
370
    15
100
AcDbLine
 10
6406.3177079411
 20
3813.3525386584
 30
0.0
 11
6972.0031328904
 21
4139.9157833875
 31
0.0
  0
ARC
  5
236
330
1F
100
AcDbEntity
  8
0
  6
Continuous
 62
     7
370
    15
100
AcDbCircle
 10
6963.7220396886
 20
4126.9697261869
 30
0.0
 40
15.36804807571865
100
AcDbArc
 50
2.6054784856
 51
57.39452166
  0
LINE
  5
237
330
1F
100
AcDbEntity
  8
0
  6
Continuous
 62
     7
370
    15
100
AcDbLine
 10
6979.0742007022
 20
4127.6683347095
 30
0.0
 11
6413.388775753
 21
3801.1050899804
 31
0.0
  0
LINE
  5
238
330
1F
100
AcDbEntity
  8
0
  6
Continuous
 62
     7
370
    15
100
AcDbLine
 10
6399.2466401293
 20
3801.1050899804
 30
0.0
 11
6321.4648941987
 21
3846.0075361307
 31
0.0
  0
ARC
  5
239
330
1F
100
AcDbEntity
  8
0
  6
Continuous
 62
     7
370
    15
100
AcDbCircle
 10
6336.8170552124
 20
3845.3089276081
 30
0.0
 40
15.36804807572334
100
AcDbArc
 50
122.60547834
 51
177.3945215143
  0
LINE
  5
23A
330
1F
100
AcDbEntity
  8
0
  6
Continuous
 62
     7
370
    15
100
AcDbLine
 10
6328.5359620106
 20
3858.2549848087
 30
0.0
 11
6406.3177079411
 21
3813.3525386584
 31
0.0
  0
LINE
  5
23B
330
1F
100
AcDbEntity
  8
0
  6
Continuous
 62
     7
370
    15
100
AcDbLine
 10
6979.0742007022
 20
3735.7287450044
 30
0.0
 11
6979.0742007022
 21
4127.6683347095
 31
0.0
  0
LINE
  5
23C
330
1F
100
AcDbEntity
  8
0
  6
Continuous
 62
     7
370
    15
100
AcDbLine
 10
6413.388775753
 20
3409.1655002753
 30
0.0
 11
6979.0742007022
 21
3735.7287450044
 31
0.0
  0
LINE
  5
23D
330
1F
100
AcDbEntity
  8
0
  6
Continuous
 62
     7
370
    15
100
AcDbLine
 10
6321.4648941987
 20
3454.0679464255
 30
0.0
 11
6399.2466401293
 21
3409.1655002753
 31
0.0
  0
LINE
  5
23E
330
1F
100
AcDbEntity
  8
0
  6
Continuous
 62
     7
370
    15
100
AcDbLine
 10
6321.4648941987
 20
3846.0075361307
 30
0.0
 11
6321.4648941987
 21
3454.0679464255
 31
0.0
  0
LINE
  5
23F
330
1F
100
AcDbEntity
  8
0
  6
Continuous
 62
     7
370
    15
100
AcDbLine
 10
6894.2213869599
 20
4184.8182295378
 30
0.0
 11
6328.5359620106
 21
3858.2549848087
 31
0.0
  0
LINE
  5
240
330
1F
100
AcDbEntity
  8
0
  6
Continuous
 62
     7
370
    15
100
AcDbLine
 10
6972.0031328904
 20
4139.9157833875
 30
0.0
 11
6894.2213869599
 21
4184.8182295378
 31
0.0
  0
ARC
  5
241
330
1F
100
AcDbEntity
  8
0
  6
Continuous
 62
     7
370
    15
100
AcDbCircle
 10
5013.3173490036
 20
4618.9141909754
 30
0.0
 40
15.37021907912266
100
AcDbArc
 50
242.6096722366
 51
297.3903277634
  0
ARC
  5
242
330
1F
100
AcDbEntity
  8
0
  6
Continuous
 62
     7
370
    15
100
AcDbCircle
 10
5021.5984422054
 20
4604.5684716032
 30
0.0
 40
15.36804807572328
100
AcDbArc
 50
122.60547834
 51
177.3945215143
  0
ARC
  5
243
330
1F
100
AcDbEntity
  8
0
  6
Continuous
 62
     7
370
    15
100
AcDbCircle
 10
5005.0362558018
 20
4604.5684716032
 30
0.0
 40
15.36804807572299
100
AcDbArc
 50
2.6054784857
 51
57.39452166
  0
LINE
  5
244
330
1F
100
AcDbEntity
  8
0
  6
Continuous
 62
     7
370
    15
100
AcDbLine
 10
4935.5356030731
 20
4662.416974954
 30
0.0
 11
5013.3173490036
 21
4617.5145288038
 31
0.0
  0
LINE
  5
245
330
1F
100
AcDbEntity
  8
0
  6
Continuous
 62
     7
370
    15
100
AcDbLine
 10
5006.2462811918
 20
4605.2670801258
 30
0.0
 11
4928.4645352613
 21
4650.1695262761
 31
0.0
  0
ARC
  5
246
330
1F
100
AcDbEntity
  8
0
  6
Continuous
 62
     7
370
    15
100
AcDbCircle
 10
4943.8166962749
 20
4649.4709177535
 30
0.0
 40
15.36804807571797
100
AcDbArc
 50
122.60547834
 51
177.3945215144
  0
LINE
  5
247
330
1F
100
AcDbEntity
  8
0
  6
Continuous
 62
     7
370
    15
100
AcDbLine
 10
4928.4645352613
 20
4650.1695262761
 30
0.0
 11
4928.4645352613
 21
4258.2299365709
 31
0.0
  0
LINE
  5
248
330
1F
100
AcDbEntity
  8
0
  6
Continuous
 62
     7
370
    15
100
AcDbLine
 10
4928.4645352613
 20
4258.2299365709
 30
0.0
 11
5006.2462811918
 21
4213.3274904207
 31
0.0
  0
LINE
  5
249
330
1F
100
AcDbEntity
  8
0
  6
Continuous
 62
     7
370
    15
100
AcDbLine
 10
5501.2210280224
 20
4988.9802196831
 30
0.0
 11
4935.5356030731
 21
4662.416974954
 31
0.0
  0
ARC
  5
24A
330
1F
100
AcDbEntity
  8
0
  6
Continuous
 62
     7
370
    15
100
AcDbCircle
 10
5654.4590113674
 20
4039.1766601521
 30
0.0
 40
15.36804807572425
100
AcDbArc
 50
122.60547834
 51
177.3945215143
  0
LINE
  5
24B
330
1F
100
AcDbEntity
  8
0
  6
Continuous
 62
     7
370
    15
100
AcDbLine
 10
5639.1068503537
 20
3933.7249631296
 30
0.0
 11
5639.1068503537
 21
4039.8752686747
 31
0.0
  0
LINE
  5
24C
330
1F
100
AcDbEntity
  8
0
  6
Continuous
 62
     7
370
    15
100
AcDbLine
 10
5646.1779181656
 20
4052.1227173527
 30
0.0
 11
6038.6221817241
 21
4278.6759683835
 31
0.0
  0
LINE
  5
24D
330
1F
100
AcDbEntity
  8
0
  6
Continuous
 62
     7
370
    15
100
AcDbLine
 10
5009.7818150977
 20
4419.5063676729
 30
0.0
 11
5646.1779181656
 21
4052.1227173527
 31
0.0
  0
LINE
  5
24E
330
1F
100
AcDbEntity
  8
0
  6
Continuous
 62
     7
370
    15
100
AcDbLine
 10
5639.1068503537
 20
4039.8752686747
 30
0.0
 11
5002.7107472858
 21
4407.2589189949
 31
0.0
  0
ARC
  5
24F
330
1F
100
AcDbEntity
  8
0
  6
Continuous
 62
     7
370
    15
100
AcDbCircle
 10
5018.0629082995
 20
4406.5603104723
 30
0.0
 40
15.36804807571779
100
AcDbArc
 50
122.60547834
 51
177.3945215144
  0
LINE
  5
250
330
1F
100
AcDbEntity
  8
0
  6
Continuous
 62
     7
370
    15
100
AcDbLine
 10
5002.7107472858
 20
4407.2589189949
 30
0.0
 11
5002.7107472858
 21
4301.1086134498
 31
0.0
  0
LINE
  5
251
330
1F
100
AcDbEntity
  8
0
  6
Continuous
 62
     7
370
    15
100
AcDbLine
 10
5002.7107472858
 20
4301.1086134498
 30
0.0
 11
5639.1068503537
 21
3933.7249631296
 31
0.0
  0
LINE
  5
252
330
1F
100
AcDbEntity
  8
0
  6
Continuous
 62
     7
370
    15
100
AcDbLine
 10
5402.2260786562
 20
4646.0596187037
 30
0.0
 11
5009.7818150977
 21
4419.5063676729
 31
0.0
  0
LINE
  5
253
330
1F
100
AcDbEntity
  8
0
  6
Continuous
 62
     7
370
    15
100
AcDbLine
 10
6038.6221817241
 20
4278.6759683835
 30
0.0
 11
5402.2260786562
 21
4646.0596187037
 31
0.0
  0
LINE
  5
254
330
1F
100
AcDbEntity
  8
0
  6
Continuous
 62
     7
370
    15
100
AcDbLine
 10
6887.150319148
 20
4275.2348907223
 30
0.0
 11
6812.6412553821
 21
4265.9513134568
 31
0.0
  0
LINE
  5
255
330
1F
100
AcDbEntity
  8
0
  6
Continuous
 62
     7
370
    15
100
AcDbLine
 10
6307.322758575
 20
3462.2320275438
 30
0.0
 11
6307.322758575
 21
3552.0515168512
 31
0.0
  0
LINE
  5
256
330
1F
100
AcDbEntity
  8
0
  6
Continuous
 62
     7
370
    15
100
AcDbLine
 10
5020.3884168155
 20
4205.1634093024
 30
0.0
 11
6307.322758575
 21
3462.2320275438
 31
0.0
  0
ARC
  5
257
330
1F
100
AcDbEntity
  8
0
  6
Continuous
 62
     7
370
    15
100
AcDbCircle
 10
6811.4712076889
 20
4291.2638190703
 30
0.0
 40
25.3395333823557
100
AcDbArc
 50
240.4830704608
 51
272.6465617534
  0
LINE
  5
258
330
1F
100
AcDbEntity
  8
0
  6
Continuous
 62
     7
370
    15
100
AcDbLine
 10
5512.0525666822
 20
5012.1444814678
 30
0.0
 11
5409.7849351515
 21
4651.8601173223
 31
0.0
  0
LINE
  5
259
330
1F
100
AcDbEntity
  8
0
  6
Continuous
 62
     7
370
    15
100
AcDbLine
 10
6798.9869084418
 20
4269.2130997092
 30
0.0
 11
5512.0525666822
 21
5012.1444814678
 31
0.0
  0
LWPOLYLINE
  5
25A
330
1F
100
AcDbEntity
  8
0
  6
Continuous
 62
     7
370
    15
100
AcDbPolyline
 90
       48
 70
   128
 43
0.0
 10
5609.8586938297
 20
4767.1847710429
 10
5611.6976019129
 20
4765.9343589018
 10
5613.4115864047
 20
4764.3817671442
 10
5614.9700612111
 20
4762.5547018067
 10
5616.3452153124
 20
4760.4857669137
 10
5617.5125090511
 20
4758.2118826572
 10
5618.4511120426
 20
4755.7736265557
 10
5619.1442748945
 20
4753.2145093471
 10
5619.5796280991
 20
4750.5801985386
 10
5619.7494027682
 20
4747.917703469
 10
5619.6505692689
 20
4745.2745364259
 10
5619.2848912873
 20
4742.6978647878
 10
5618.6588943556
 20
4740.2336693211
 10
5617.7837494039
 20
4737.9259236523
 10
5616.6750734146
 20
4735.8158095575
 10
5615.352650737
 20
4733.9409820727
 10
5613.840080035
 20
4732.3348975389
 10
5612.1643531688
 20
4731.0262165726
 10
5610.3553735239
 20
4730.0382926165
 10
5608.445422385
 20
4729.3887551972
 10
5606.4685828753
 20
4729.0891953252
 10
5604.4601317428
 20
4729.1449586536
 10
5602.4559098455
 20
4729.5550500845
 10
5600.4916825707
 20
4730.3121515265
 10
5598.6025016005
 20
4731.4027524865
 10
5596.8220794142
 20
4732.8073911645
 10
5595.1821876878
 20
4734.50100175
 10
5593.7120903281
 20
4736.4533617221
 10
5592.4380212572
 20
4738.6296311707
 10
5591.382716268
 20
4740.990974516
 10
5590.565007303
 20
4743.49525353
 10
5589.9994863979
 20
4746.0977792945
 10
5589.6962452868
 20
4748.7521096754
 10
5589.6606953145
 20
4751.4108780843
 10
5589.893470871
 20
4754.026638736
 10
5590.3904180711
 20
4756.5527133195
 10
5591.1426688801
 20
4758.9440239742
 10
5592.1367993647
 20
4761.1578977048
 10
5593.3550692427
 20
4763.154827882
 10
5594.7757384592
 20
4764.8991792396
 10
5596.3734551386
 20
4766.3598237863
 10
5598.1197079887
 20
4767.5106962855
 10
5599.9833350861
 20
4768.3312593901
 10
5601.9310799611
 20
4768.8068701323
 10
5603.9281850603
 20
4768.929041227
 10
5605.9390119958
 20
4768.6955925281
 10
5607.9276775134
 20
4768.1106899331
 10
5609.8586938297
 20
4767.1847710429
  0
LWPOLYLINE
  5
25B
330
1F
100
AcDbEntity
  8
0
  6
Continuous
 62
     7
370
    15
100
AcDbPolyline
 90
       48
 70
   128
 43
0.0
 10
5753.637072671
 20
4684.1832796742
 10
5755.4759807542
 20
4682.9328675331
 10
5757.1899652459
 20
4681.3802757755
 10
5758.7484400524
 20
4679.5532104381
 10
5760.1235941537
 20
4677.484275545
 10
5761.2908878923
 20
4675.2103912885
 10
5762.2294908839
 20
4672.772135187
 10
5762.9226537357
 20
4670.2130179785
 10
5763.3580069403
 20
4667.57870717
 10
5763.5277816095
 20
4664.9162121004
 10
5763.4289481102
 20
4662.2730450573
 10
5763.0632701286
 20
4659.6963734192
 10
5762.4372731969
 20
4657.2321779524
 10
5761.5621282452
 20
4654.9244322836
 10
5760.4534522559
 20
4652.8143181889
 10
5759.1310295782
 20
4650.9394907041
 10
5757.6184588763
 20
4649.3334061703
 10
5755.9427320101
 20
4648.0247252039
 10
5754.1337523652
 20
4647.0368012479
 10
5752.2238012263
 20
4646.3872638286
 10
5750.2469617166
 20
4646.0877039566
 10
5748.2385105841
 20
4646.143467285
 10
5746.2342886868
 20
4646.5535587158
 10
5744.2700614119
 20
4647.3106601579
 10
5742.3808804418
 20
4648.4012611178
 10
5740.6004582554
 20
4649.8058997958
 10
5738.9605665291
 20
4651.4995103814
 10
5737.4904691693
 20
4653.4518703534
 10
5736.2164000985
 20
4655.628139802
 10
5735.1610951093
 20
4657.9894831473
 10
5734.3433861442
 20
4660.4937621614
 10
5733.7778652392
 20
4663.0962879258
 10
5733.4746241281
 20
4665.7506183068
 10
5733.4390741557
 20
4668.4093867157
 10
5733.6718497123
 20
4671.0251473673
 10
5734.1687969123
 20
4673.5512219509
 10
5734.9210477214
 20
4675.9425326056
 10
5735.915178206
 20
4678.1564063361
 10
5737.1334480839
 20
4680.1533365134
 10
5738.5541173005
 20
4681.897687871
 10
5740.1518339799
 20
4683.3583324176
 10
5741.89808683
 20
4684.5092049168
 10
5743.7617139274
 20
4685.3297680215
 10
5745.7094588024
 20
4685.8053787637
 10
5747.7065639016
 20
4685.9275498583
 10
5749.7173908371
 20
4685.6941011594
 10
5751.7060563547
 20
4685.1091985645
 10
5753.637072671
 20
4684.1832796742
  0
LWPOLYLINE
  5
25C
330
1F
100
AcDbEntity
  8
0
  6
Continuous
 62
     7
370
    15
100
AcDbPolyline
 90
       48
 70
   128
 43
0.0
 10
5897.4154515123
 20
4601.1817883056
 10
5899.2543595955
 20
4599.9313761645
 10
5900.9683440872
 20
4598.3787844069
 10
5902.5268188937
 20
4596.5517190694
 10
5903.901972995
 20
4594.4827841764
 10
5905.0692667336
 20
4592.2088999199
 10
5906.0078697251
 20
4589.7706438184
 10
5906.701032577
 20
4587.2115266098
 10
5907.1363857816
 20
4584.5772158013
 10
5907.3061604508
 20
4581.9147207317
 10
5907.2073269515
 20
4579.2715536886
 10
5906.8416489698
 20
4576.6948820505
 10
5906.2156520381
 20
4574.2306865838
 10
5905.3405070864
 20
4571.922940915
 10
5904.2318310971
 20
4569.8128268202
 10
5902.9094084195
 20
4567.9379993355
 10
5901.3968377176
 20
4566.3319148016
 10
5899.7211108513
 20
4565.0232338353
 10
5897.9121312065
 20
4564.0353098792
 10
5896.0021800675
 20
4563.3857724599
 10
5894.0253405579
 20
4563.0862125879
 10
5892.0168894254
 20
4563.1419759163
 10
5890.0126675281
 20
4563.5520673472
 10
5888.0484402532
 20
4564.3091687892
 10
5886.159259283
 20
4565.3997697492
 10
5884.3788370967
 20
4566.8044084272
 10
5882.7389453703
 20
4568.4980190127
 10
5881.2688480106
 20
4570.4503789848
 10
5879.9947789398
 20
4572.6266484334
 10
5878.9394739505
 20
4574.9879917787
 10
5878.1217649855
 20
4577.4922707927
 10
5877.5562440804
 20
4580.0947965572
 10
5877.2530029693
 20
4582.7491269381
 10
5877.217452997
 20
4585.407895347
 10
5877.4502285535
 20
4588.0236559987
 10
5877.9471757536
 20
4590.5497305823
 10
5878.6994265627
 20
4592.9410412369
 10
5879.6935570472
 20
4595.1549149675
 10
5880.9118269252
 20
4597.1518451447
 10
5882.3324961418
 20
4598.8961965023
 10
5883.9302128211
 20
4600.356841049
 10
5885.6764656712
 20
4601.5077135482
 10
5887.5400927687
 20
4602.3282766529
 10
5889.4878376437
 20
4602.803887395
 10
5891.4849427428
 20
4602.9260584897
 10
5893.4957696784
 20
4602.6926097908
 10
5895.4844351959
 20
4602.1077071959
 10
5897.4154515123
 20
4601.1817883056
  0
LWPOLYLINE
  5
25D
330
1F
100
AcDbEntity
  8
0
  6
Continuous
 62
     7
370
    15
100
AcDbPolyline
 90
       48
 70
   128
 43
0.0
 10
6041.1938303535
 20
4518.1802969369
 10
6043.0327384367
 20
4516.9298847959
 10
6044.7467229285
 20
4515.3772930382
 10
6046.3051977349
 20
4513.5502277008
 10
6047.6803518362
 20
4511.4812928077
 10
6048.8476455749
 20
4509.2074085512
 10
6049.7862485664
 20
4506.7691524498
 10
6050.4794114182
 20
4504.2100352412
 10
6050.9147646229
 20
4501.5757244327
 10
6051.084539292
 20
4498.9132293631
 10
6050.9857057927
 20
4496.27006232
 10
6050.6200278111
 20
4493.6933906819
 10
6049.9940308794
 20
4491.2291952152
 10
6049.1188859277
 20
4488.9214495464
 10
6048.0102099384
 20
4486.8113354516
 10
6046.6877872608
 20
4484.9365079668
 10
6045.1752165588
 20
4483.330423433
 10
6043.4994896926
 20
4482.0217424666
 10
6041.6905100477
 20
4481.0338185106
 10
6039.7805589088
 20
4480.3842810913
 10
6037.8037193991
 20
4480.0847212193
 10
6035.7952682666
 20
4480.1404845477
 10
6033.7910463693
 20
4480.5505759786
 10
6031.8268190945
 20
4481.3076774206
 10
6029.9376381243
 20
4482.3982783806
 10
6028.157215938
 20
4483.8029170586
 10
6026.5173242116
 20
4485.4965276441
 10
6025.0472268519
 20
4487.4488876161
 10
6023.773157781
 20
4489.6251570647
 10
6022.7178527918
 20
4491.98650041
 10
6021.9001438267
 20
4494.4907794241
 10
6021.3346229217
 20
4497.0933051885
 10
6021.0313818106
 20
4499.7476355695
 10
6020.9958318383
 20
4502.4064039784
 10
6021.2286073948
 20
4505.02216463
 10
6021.7255545949
 20
4507.5482392136
 10
6022.4778054039
 20
4509.9395498683
 10
6023.4719358885
 20
4512.1534235989
 10
6024.6902057665
 20
4514.1503537761
 10
6026.110874983
 20
4515.8947051337
 10
6027.7085916624
 20
4517.3553496803
 10
6029.4548445125
 20
4518.5062221795
 10
6031.3184716099
 20
4519.3267852842
 10
6033.2662164849
 20
4519.8023960264
 10
6035.2633215841
 20
4519.924567121
 10
6037.2741485196
 20
4519.6911184221
 10
6039.2628140372
 20
4519.1062158272
 10
6041.1938303535
 20
4518.1802969369
  0
LWPOLYLINE
  5
25E
330
1F
100
AcDbEntity
  8
0
  6
Continuous
 62
     7
370
    15
100
AcDbPolyline
 90
       48
 70
   128
 43
0.0
 10
6184.9722091948
 20
4435.1788055683
 10
6186.811117278
 20
4433.9283934272
 10
6188.5251017697
 20
4432.3758016696
 10
6190.0835765762
 20
4430.5487363322
 10
6191.4587306775
 20
4428.4798014391
 10
6192.6260244161
 20
4426.2059171826
 10
6193.5646274077
 20
4423.7676610811
 10
6194.2577902595
 20
4421.2085438725
 10
6194.6931434641
 20
4418.574233064
 10
6194.8629181333
 20
4415.9117379945
 10
6194.764084634
 20
4413.2685709513
 10
6194.3984066524
 20
4410.6918993132
 10
6193.7724097207
 20
4408.2277038465
 10
6192.897264769
 20
4405.9199581777
 10
6191.7885887796
 20
4403.8098440829
 10
6190.466166102
 20
4401.9350165982
 10
6188.9535954001
 20
4400.3289320643
 10
6187.2778685339
 20
4399.020251098
 10
6185.468888889
 20
4398.0323271419
 10
6183.5589377501
 20
4397.3827897226
 10
6181.5820982404
 20
4397.0832298507
 10
6179.5736471079
 20
4397.1389931791
 10
6177.5694252106
 20
4397.5490846099
 10
6175.6051979357
 20
4398.3061860519
 10
6173.7160169655
 20
4399.3967870119
 10
6171.9355947792
 20
4400.8014256899
 10
6170.2957030529
 20
4402.4950362755
 10
6168.8256056931
 20
4404.4473962475
 10
6167.5515366223
 20
4406.6236656961
 10
6166.4962316331
 20
4408.9850090414
 10
6165.678522668
 20
4411.4892880554
 10
6165.113001763
 20
4414.0918138199
 10
6164.8097606519
 20
4416.7461442008
 10
6164.7742106795
 20
4419.4049126098
 10
6165.0069862361
 20
4422.0206732614
 10
6165.5039334361
 20
4424.546747845
 10
6166.2561842452
 20
4426.9380584997
 10
6167.2503147298
 20
4429.1519322302
 10
6168.4685846077
 20
4431.1488624075
 10
6169.8892538243
 20
4432.893213765
 10
6171.4869705036
 20
4434.3538583117
 10
6173.2332233538
 20
4435.5047308109
 10
6175.0968504512
 20
4436.3252939156
 10
6177.0445953262
 20
4436.8009046577
 10
6179.0417004254
 20
4436.9230757524
 10
6181.0525273609
 20
4436.6896270535
 10
6183.0411928784
 20
4436.1047244586
 10
6184.9722091948
 20
4435.1788055683
  0
LWPOLYLINE
  5
25F
330
1F
100
AcDbEntity
  8
0
  6
Continuous
 62
     7
370
    15
100
AcDbPolyline
 90
       48
 70
   128
 43
0.0
 10
6328.7505880361
 20
4352.1773141997
 10
6330.5894961193
 20
4350.9269020586
 10
6332.303480611
 20
4349.374310301
 10
6333.8619554175
 20
4347.5472449635
 10
6335.2371095188
 20
4345.4783100704
 10
6336.4044032574
 20
4343.204425814
 10
6337.3430062489
 20
4340.7661697125
 10
6338.0361691008
 20
4338.2070525039
 10
6338.4715223054
 20
4335.5727416954
 10
6338.6412969746
 20
4332.9102466258
 10
6338.5424634753
 20
4330.2670795827
 10
6338.1767854936
 20
4327.6904079446
 10
6337.5507885619
 20
4325.2262124779
 10
6336.6756436102
 20
4322.9184668091
 10
6335.5669676209
 20
4320.8083527143
 10
6334.2445449433
 20
4318.9335252295
 10
6332.7319742414
 20
4317.3274406957
 10
6331.0562473751
 20
4316.0187597293
 10
6329.2472677303
 20
4315.0308357733
 10
6327.3373165913
 20
4314.381298354
 10
6325.3604770817
 20
4314.081738482
 10
6323.3520259492
 20
4314.1375018104
 10
6321.3478040519
 20
4314.5475932413
 10
6319.383576777
 20
4315.3046946833
 10
6317.4943958068
 20
4316.3952956433
 10
6315.7139736205
 20
4317.7999343213
 10
6314.0740818941
 20
4319.4935449068
 10
6312.6039845344
 20
4321.4459048789
 10
6311.3299154636
 20
4323.6221743275
 10
6310.2746104743
 20
4325.9835176728
 10
6309.4569015093
 20
4328.4877966868
 10
6308.8913806042
 20
4331.0903224512
 10
6308.5881394931
 20
4333.7446528322
 10
6308.5525895208
 20
4336.4034212411
 10
6308.7853650773
 20
4339.0191818928
 10
6309.2823122774
 20
4341.5452564763
 10
6310.0345630865
 20
4343.936567131
 10
6311.028693571
 20
4346.1504408616
 10
6312.246963449
 20
4348.1473710388
 10
6313.6676326656
 20
4349.8917223964
 10
6315.2653493449
 20
4351.3523669431
 10
6317.011602195
 20
4352.5032394422
 10
6318.8752292924
 20
4353.3238025469
 10
6320.8229741675
 20
4353.7994132891
 10
6322.8200792666
 20
4353.9215843838
 10
6324.8309062021
 20
4353.6881356848
 10
6326.8195717197
 20
4353.1032330899
 10
6328.7505880361
 20
4352.1773141997
  0
LWPOLYLINE
  5
260
330
1F
100
AcDbEntity
  8
0
  6
Continuous
 62
     7
370
    15
100
AcDbPolyline
 90
       48
 70
   128
 43
0.0
 10
6472.5289668773
 20
4269.175822831
 10
6474.3678749605
 20
4267.9254106899
 10
6476.0818594523
 20
4266.3728189323
 10
6477.6403342587
 20
4264.5457535949
 10
6479.01548836
 20
4262.4768187018
 10
6480.1827820987
 20
4260.2029344453
 10
6481.1213850902
 20
4257.7646783438
 10
6481.814547942
 20
4255.2055611352
 10
6482.2499011467
 20
4252.5712503268
 10
6482.4196758158
 20
4249.9087552572
 10
6482.3208423165
 20
4247.2655882141
 10
6481.9551643349
 20
4244.6889165759
 10
6481.3291674032
 20
4242.2247211092
 10
6480.4540224515
 20
4239.9169754404
 10
6479.3453464622
 20
4237.8068613456
 10
6478.0229237846
 20
4235.9320338609
 10
6476.5103530826
 20
4234.3259493271
 10
6474.8346262164
 20
4233.0172683607
 10
6473.0256465715
 20
4232.0293444047
 10
6471.1156954326
 20
4231.3798069853
 10
6469.1388559229
 20
4231.0802471134
 10
6467.1304047904
 20
4231.1360104418
 10
6465.1261828931
 20
4231.5461018726
 10
6463.1619556183
 20
4232.3032033146
 10
6461.2727746481
 20
4233.3938042746
 10
6459.4923524618
 20
4234.7984429526
 10
6457.8524607354
 20
4236.4920535382
 10
6456.3823633757
 20
4238.4444135102
 10
6455.1082943048
 20
4240.6206829588
 10
6454.0529893156
 20
4242.9820263041
 10
6453.2352803505
 20
4245.4863053181
 10
6452.6697594455
 20
4248.0888310826
 10
6452.3665183344
 20
4250.7431614636
 10
6452.330968362
 20
4253.4019298725
 10
6452.5637439186
 20
4256.0176905241
 10
6453.0606911187
 20
4258.5437651077
 10
6453.8129419277
 20
4260.9350757624
 10
6454.8070724123
 20
4263.1489494929
 10
6456.0253422903
 20
4265.1458796702
 10
6457.4460115068
 20
4266.8902310278
 10
6459.0437281862
 20
4268.3508755744
 10
6460.7899810363
 20
4269.5017480736
 10
6462.6536081337
 20
4270.3223111783
 10
6464.6013530087
 20
4270.7979219204
 10
6466.5984581079
 20
4270.9200930151
 10
6468.6092850434
 20
4270.6866443162
 10
6470.597950561
 20
4270.1017417213
 10
6472.5289668773
 20
4269.175822831
  0
LWPOLYLINE
  5
261
330
1F
100
AcDbEntity
  8
0
  6
Continuous
 62
     7
370
    15
100
AcDbPolyline
 90
       48
 70
   128
 43
0.0
 10
6616.3073457186
 20
4186.1743314624
 10
6618.1462538018
 20
4184.9239193213
 10
6619.8602382935
 20
4183.3713275637
 10
6621.4187131
 20
4181.5442622262
 10
6622.7938672013
 20
4179.4753273332
 10
6623.9611609399
 20
4177.2014430767
 10
6624.8997639315
 20
4174.7631869752
 10
6625.5929267833
 20
4172.2040697666
 10
6626.0282799879
 20
4169.5697589581
 10
6626.1980546571
 20
4166.9072638885
 10
6626.0992211578
 20
4164.2640968454
 10
6625.7335431762
 20
4161.6874252073
 10
6625.1075462445
 20
4159.2232297406
 10
6624.2324012928
 20
4156.9154840718
 10
6623.1237253034
 20
4154.805369977
 10
6621.8013026258
 20
4152.9305424922
 10
6620.2887319239
 20
4151.3244579584
 10
6618.6130050577
 20
4150.0157769921
 10
6616.8040254128
 20
4149.027853036
 10
6614.8940742739
 20
4148.3783156167
 10
6612.9172347642
 20
4148.0787557447
 10
6610.9087836317
 20
4148.1345190731
 10
6608.9045617344
 20
4148.544610504
 10
6606.9403344595
 20
4149.301711946
 10
6605.0511534893
 20
4150.392312906
 10
6603.270731303
 20
4151.796951584
 10
6601.6308395766
 20
4153.4905621695
 10
6600.1607422169
 20
4155.4429221416
 10
6598.8866731461
 20
4157.6191915902
 10
6597.8313681569
 20
4159.9805349355
 10
6597.0136591918
 20
4162.4848139495
 10
6596.4481382867
 20
4165.087339714
 10
6596.1448971756
 20
4167.7416700949
 10
6596.1093472033
 20
4170.4004385038
 10
6596.3421227598
 20
4173.0161991555
 10
6596.8390699599
 20
4175.542273739
 10
6597.591320769
 20
4177.9335843937
 10
6598.5854512535
 20
4180.1474581243
 10
6599.8037211315
 20
4182.1443883015
 10
6601.2243903481
 20
4183.8887396591
 10
6602.8221070274
 20
4185.3493842058
 10
6604.5683598776
 20
4186.500256705
 10
6606.431986975
 20
4187.3208198096
 10
6608.37973185
 20
4187.7964305518
 10
6610.3768369492
 20
4187.9186016465
 10
6612.3876638847
 20
4187.6851529476
 10
6614.3763294022
 20
4187.1002503526
 10
6616.3073457186
 20
4186.1743314624
  0
LWPOLYLINE
  5
262
330
1F
100
AcDbEntity
  8
0
  6
Continuous
 62
     7
370
    15
100
AcDbPolyline
 90
        9
 70
   128
 43
0.0
 10
6808.1509696061
 20
4279.1253355242
 10
6806.8170465578
 20
4278.7906119721
 10
6805.4352074179
 20
4278.1193519078
 10
6804.0585554895
 20
4277.1373514793
 10
6802.7399947343
 20
4275.8823484122
 10
6801.5301967026
 20
4274.4025717706
 10
6800.4756532543
 20
4272.754888541
 10
6799.6168899027
 20
4271.0026182659
 10
6798.9869084418
 20
4269.2130997092
  0
ARC
  5
263
330
1F
100
AcDbEntity
  8
0
  6
Continuous
 62
     7
370
    15
100
AcDbCircle
 10
6801.3006961972
 20
4269.4382068335
 30
0.0
 40
11.86451465699106
100
AcDbArc
 50
342.9088536988
 51
54.7338792549
  0
LINE
  5
264
330
1F
100
AcDbEntity
  8
0
  6
Continuous
 62
     7
370
    15
100
AcDbLine
 10
6808.1509696061
 20
4279.1253355242
 30
0.0
 11
6882.6600333719
 21
4288.4089127896
 31
0.0
  0
ARC
  5
265
330
1F
100
AcDbEntity
  8
0
  6
Continuous
 62
     7
370
    15
100
AcDbCircle
 10
6875.8097599631
 20
4278.7217840989
 30
0.0
 40
11.86451465698747
100
AcDbArc
 50
342.9088536988
 51
54.7338792549
  0
LWPOLYLINE
  5
266
330
1F
100
AcDbEntity
  8
0
  6
Continuous
 62
     7
370
    15
100
AcDbPolyline
 90
        9
 70
   128
 43
0.0
 10
5512.0525666822
 20
5012.1444814678
 10
5512.6825481431
 20
5013.9340000245
 10
5513.5413114948
 20
5015.6862702997
 10
5514.5958549431
 20
5017.3339535293
 10
5515.8056529748
 20
5018.8137301709
 10
5517.12421373
 20
5020.068733238
 10
5518.5008656584
 20
5021.0507336665
 10
5519.8827047983
 20
5021.7219937307
 10
5521.2166278465
 20
5022.0567172829
  0
LINE
  5
267
330
1F
100
AcDbEntity
  8
0
  6
Continuous
 62
     7
370
    15
100
AcDbLine
 10
5521.2166278465
 20
5022.0567172829
 30
0.0
 11
6808.1509696061
 21
4279.1253355242
 31
0.0
  0
LINE
  5
268
330
1F
100
AcDbEntity
  8
0
  6
Continuous
 62
     7
370
    15
100
AcDbLine
 10
5595.7256916124
 20
5031.3402945483
 30
0.0
 11
5521.2166278465
 21
5022.0567172829
 31
0.0
  0
LINE
  5
269
330
1F
100
AcDbEntity
  8
0
  6
Continuous
 62
     7
370
    15
100
AcDbLine
 10
6882.6600333719
 20
4288.4089127896
 30
0.0
 11
5595.7256916124
 21
5031.3402945483
 31
0.0
  0
ARC
  5
26A
330
1F
100
AcDbEntity
  8
0
  6
Continuous
 62
     7
370
    15
100
AcDbCircle
 10
5421.3499480826
 20
4648.4632435692
 30
0.0
 40
12.05355861937587
100
AcDbArc
 50
163.6314398629
 51
179.3578572157
  0
LWPOLYLINE
  5
26B
330
1F
100
AcDbEntity
  8
0
  6
Continuous
 62
     7
370
    15
100
AcDbPolyline
 90
       11
 70
   128
 43
0.0
 10
6616.5142132313
 20
4178.5958533555
 10
6615.4216399337
 20
4178.4924488133
 10
6613.1800779939
 20
4177.1641320297
 10
6611.4513859369
 20
4174.8940213301
 10
6610.4303882925
 20
4171.9380463923
 10
6610.2323566883
 20
4168.6294903273
 10
6610.879307344
 20
4165.3413290295
 10
6612.2987598292
 20
4162.4443336867
 10
6614.3302245532
 20
4160.2650624669
 10
6616.7449656906
 20
4159.0492489654
 10
6618.9736990121
 20
4158.9475079163
  0
LWPOLYLINE
  5
26C
330
1F
100
AcDbEntity
  8
0
  6
Continuous
 62
     7
370
    15
100
AcDbPolyline
 90
       11
 70
   128
 43
0.0
 10
6472.7358343899
 20
4261.5973447243
 10
6471.6432610981
 20
4261.4939401838
 10
6469.4016991575
 20
4260.1656234026
 10
6467.6730070985
 20
4257.8955127049
 10
6466.6520094522
 20
4254.9395377683
 10
6466.4539778464
 20
4251.6309817037
 10
6467.1009285008
 20
4248.3428204055
 10
6468.5203809834
 20
4245.4458250613
 10
6470.5518457066
 20
4243.2665538395
 10
6472.9665868436
 20
4242.0507403356
 10
6475.1953201709
 20
4241.9489992839
  0
LWPOLYLINE
  5
26D
330
1F
100
AcDbEntity
  8
0
  6
Continuous
 62
     7
370
    15
100
AcDbPolyline
 90
       11
 70
   128
 43
0.0
 10
6328.9574555488
 20
4344.5988360928
 10
6327.8648822515
 20
4344.4954315507
 10
6325.6233203116
 20
4343.1671147672
 10
6323.8946282545
 20
4340.8970040677
 10
6322.87363061
 20
4337.94102913
 10
6322.6755990058
 20
4334.632473065
 10
6323.3225496613
 20
4331.3443117671
 10
6324.7420021464
 20
4328.4473164243
 10
6326.7734668704
 20
4326.2680452044
 10
6329.1882080078
 20
4325.0522317028
 10
6331.4169413296
 20
4324.9504906535
  0
LWPOLYLINE
  5
26E
330
1F
100
AcDbEntity
  8
0
  6
Continuous
 62
     7
370
    15
100
AcDbPolyline
 90
       11
 70
   128
 43
0.0
 10
6185.1790767075
 20
4427.6003274615
 10
6184.0865034105
 20
4427.4969229194
 10
6181.8449414706
 20
4426.1686061361
 10
6180.1162494135
 20
4423.8984954367
 10
6179.0952517688
 20
4420.942520499
 10
6178.8972201645
 20
4417.6339644341
 10
6179.5441708199
 20
4414.3458031362
 10
6180.963623305
 20
4411.4488077933
 10
6182.9950880289
 20
4409.2695365733
 10
6185.4098291662
 20
4408.0537230715
 10
6187.6385624883
 20
4407.9519820221
  0
LWPOLYLINE
  5
26F
330
1F
100
AcDbEntity
  8
0
  6
Continuous
 62
     7
370
    15
100
AcDbPolyline
 90
       11
 70
   128
 43
0.0
 10
6041.4006978661
 20
4510.6018188303
 10
6040.308124576
 20
4510.4984142903
 10
6038.0665626351
 20
4509.1700975098
 10
6036.3378705756
 20
4506.8999868126
 10
6035.3168729288
 20
4503.9440118764
 10
6035.1188413224
 20
4500.6354558119
 10
6035.7657919763
 20
4497.3472945135
 10
6037.1852444584
 20
4494.4502991689
 10
6039.2167091813
 20
4492.2710279466
 10
6041.6314503181
 20
4491.055214442
 10
6043.8601836471
 20
4490.9534733895
  0
LWPOLYLINE
  5
270
330
1F
100
AcDbEntity
  8
0
  6
Continuous
 62
     7
370
    15
100
AcDbPolyline
 90
       11
 70
   128
 43
0.0
 10
5897.622319025
 20
4593.6033101988
 10
5896.5297457277
 20
4593.4999056566
 10
5894.2881837878
 20
4592.1715888731
 10
5892.5594917307
 20
4589.9014781736
 10
5891.5384940862
 20
4586.9455032359
 10
5891.340462482
 20
4583.6369471709
 10
5891.9874131375
 20
4580.348785873
 10
5893.4068656227
 20
4577.4517905302
 10
5895.4383303467
 20
4575.2725193103
 10
5897.8530714841
 20
4574.0567058087
 10
5900.0818048058
 20
4573.9549647595
  0
LWPOLYLINE
  5
271
330
1F
100
AcDbEntity
  8
0
  6
Continuous
 62
     7
370
    15
100
AcDbPolyline
 90
       11
 70
   128
 43
0.0
 10
5753.8439401832
 20
4676.6048015678
 10
5752.7513669019
 20
4676.5013970303
 10
5750.5098049597
 20
4675.1730802534
 10
5748.7811128978
 20
4672.9029695591
 10
5747.7601152483
 20
4669.9469946248
 10
5747.5620836391
 20
4666.6384385609
 10
5748.2090342904
 20
4663.3502772618
 10
5749.6284867696
 20
4660.4532819152
 10
5751.6599514909
 20
4658.2740106899
 10
5754.0746926268
 20
4657.0581971817
 10
5756.3034259645
 20
4656.9564561253
  0
LWPOLYLINE
  5
272
330
1F
100
AcDbEntity
  8
0
  6
Continuous
 62
     7
370
    15
100
AcDbPolyline
 90
       11
 70
   128
 43
0.0
 10
5610.0655613425
 20
4759.606292936
 10
5608.9729880436
 20
4759.5028883934
 10
5606.731426104
 20
4758.1745716092
 10
5605.0027340473
 20
4755.9044609092
 10
5603.9817364033
 20
4752.9484859712
 10
5603.7837047996
 20
4749.6399299061
 10
5604.4306554557
 20
4746.3517686084
 10
5605.8501079412
 20
4743.4547732659
 10
5607.8815726655
 20
4741.2755020465
 10
5610.2963138031
 20
4740.0596885456
 10
5612.5250471233
 20
4739.957947497
  0
ARC
  5
273
330
1F
100
AcDbEntity
  8
0
  6
Continuous
 62
     7
370
    15
100
AcDbCircle
 10
6288.4350636554
 20
3663.6289287137
 30
0.0
 40
15.3680480757238
100
AcDbArc
 50
2.6054784857
 51
57.39452166
  0
ARC
  5
274
330
1F
100
AcDbEntity
  8
0
  6
Continuous
 62
     7
370
    15
100
AcDbCircle
 10
6296.7161568572
 20
3677.9746480858
 30
0.0
 40
15.3702190791158
100
AcDbArc
 50
242.6096722366
 51
297.3903277634
  0
ARC
  5
275
330
1F
100
AcDbEntity
  8
0
  6
Continuous
 62
     7
370
    15
100
AcDbCircle
 10
6304.997250059
 20
3663.6289287137
 30
0.0
 40
15.36804807571962
100
AcDbArc
 50
122.60547834
 51
177.3945215143
  0
LINE
  5
276
330
1F
100
AcDbEntity
  8
0
  6
Continuous
 62
     7
370
    15
100
AcDbLine
 10
6289.6450890454
 20
3558.1772316911
 30
0.0
 11
6289.6450890454
 21
3664.3275372363
 31
0.0
  0
LINE
  5
277
330
1F
100
AcDbEntity
  8
0
  6
Continuous
 62
     7
370
    15
100
AcDbLine
 10
6303.7872246691
 20
3664.3275372363
 30
0.0
 11
6303.7872246691
 21
3558.1772316911
 31
0.0
  0
ARC
  5
278
330
1F
100
AcDbEntity
  8
0
  6
Continuous
 62
     7
370
    15
100
AcDbCircle
 10
6296.7161568572
 20
3571.8243425407
 30
0.0
 40
15.37021907911459
100
AcDbArc
 50
242.6096722366
 51
297.3903277634
  0
LINE
  5
279
330
1F
100
AcDbEntity
  8
0
  6
Continuous
 62
     7
370
    15
100
AcDbLine
 10
5660.3200537893
 20
4043.9586362345
 30
0.0
 11
6296.7161568572
 21
3676.5749859142
 31
0.0
  0
LINE
  5
27A
330
1F
100
AcDbEntity
  8
0
  6
Continuous
 62
     7
370
    15
100
AcDbLine
 10
6289.6450890454
 20
3664.3275372363
 30
0.0
 11
5653.2489859775
 21
4031.7111875565
 31
0.0
  0
ARC
  5
27B
330
1F
100
AcDbEntity
  8
0
  6
Continuous
 62
     7
370
    15
100
AcDbCircle
 10
5668.6011469911
 20
4031.0125790339
 30
0.0
 40
15.36804807571709
100
AcDbArc
 50
122.60547834
 51
177.3945215144
  0
LINE
  5
27C
330
1F
100
AcDbEntity
  8
0
  6
Continuous
 62
     7
370
    15
100
AcDbLine
 10
5653.2489859775
 20
3925.5608820113
 30
0.0
 11
6289.6450890454
 21
3558.1772316911
 31
0.0
  0
LINE
  5
27D
330
1F
100
AcDbEntity
  8
0
  6
Continuous
 62
     7
370
    15
100
AcDbLine
 10
5653.2489859775
 20
4031.7111875565
 30
0.0
 11
5653.2489859775
 21
3925.5608820113
 31
0.0
  0
LINE
  5
27E
330
1F
100
AcDbEntity
  8
0
  6
Continuous
 62
     7
370
    15
100
AcDbLine
 10
6052.7643173479
 20
4270.5118872653
 30
0.0
 11
5660.3200537893
 21
4043.9586362345
 31
0.0
  0
ARC
  5
27F
330
1F
100
AcDbEntity
  8
0
  6
Continuous
 62
     8
370
    15
100
AcDbCircle
 10
6323.5405326355
 20
3850.5886404588
 30
0.0
 40
5.029392784941622
100
AcDbArc
 50
185.6947992512
 51
245.6253417064
  0
ARC
  5
280
330
1F
100
AcDbEntity
  8
0
  6
Continuous
 62
     8
370
    15
100
AcDbCircle
 10
6325.6067614621
 20
3854.1661715175
 30
0.0
 40
5.029772359013535
100
AcDbArc
 50
54.3824225248
 51
114.3071190461
  0
ARC
  5
281
330
1F
100
AcDbEntity
  8
0
  6
Continuous
 62
     8
370
    15
100
AcDbCircle
 10
6323.5405326355
 20
3458.6490507536
 30
0.0
 40
5.029392784941149
100
AcDbArc
 50
185.6947992512
 51
245.6253417064
  0
ARC
  5
282
330
1F
100
AcDbEntity
  8
0
  6
Continuous
 62
     8
370
    15
100
AcDbCircle
 10
6891.2921864113
 20
4180.7294162466
 30
0.0
 40
5.029772359013989
100
AcDbArc
 50
54.3824225248
 51
114.3071190461
  0
ARC
  5
283
330
1F
100
AcDbEntity
  8
0
  6
Continuous
 62
     8
370
    15
100
AcDbCircle
 10
6404.1466591531
 20
3408.6246329019
 30
0.0
 40
4.929779300239867
100
AcDbArc
 50
173.7011524831
 51
234.9866671235
  0
ARC
  5
284
330
1F
100
AcDbEntity
  8
0
  6
Continuous
 62
     8
370
    15
100
AcDbCircle
 10
6408.4887567252
 20
3408.6246329037
 30
0.0
 40
4.929779304073315
100
AcDbArc
 50
305.0133329029
 51
6.2988474905
  0
ARC
  5
285
330
1F
100
AcDbEntity
  8
0
  6
Continuous
 62
     8
370
    15
100
AcDbCircle
 10
6326.3649132203
 20
3453.5270790511
 30
0.0
 40
4.929779298179427
100
AcDbArc
 50
173.7011524689
 51
234.9866671377
  0
ARC
  5
286
330
1F
100
AcDbEntity
  8
0
  6
Continuous
 62
     8
370
    15
100
AcDbCircle
 10
6974.3173451428
 20
3735.1231047185
 30
0.0
 40
4.795255464413151
100
AcDbArc
 50
304.0563508335
 51
7.2558295599
  0
ARC
  5
287
330
1F
100
AcDbEntity
  8
0
  6
Continuous
 62
     8
370
    15
100
AcDbCircle
 10
6976.9985622655
 20
4132.2494390376
 30
0.0
 40
5.029392784940341
100
AcDbArc
 50
294.3746582936
 51
354.3052007488
  0
ARC
  5
288
330
1F
100
AcDbEntity
  8
0
  6
Continuous
 62
     8
370
    15
100
AcDbCircle
 10
6974.9323334389
 20
4135.8269700963
 30
0.0
 40
5.029772359016021
100
AcDbArc
 50
65.6928809539
 51
125.6175774752
  0
ARC
  5
289
330
1F
100
AcDbEntity
  8
0
  6
Continuous
 62
     8
370
    15
100
AcDbCircle
 10
6976.9985622655
 20
3740.3098493325
 30
0.0
 40
5.029392784941583
100
AcDbArc
 50
294.3746582936
 51
354.3052007488
  0
ARC
  5
28A
330
1F
100
AcDbEntity
  8
0
  6
Continuous
 62
     8
370
    15
100
AcDbCircle
 10
6897.1505875084
 20
4180.7294162466
 30
0.0
 40
5.02977235901419
100
AcDbArc
 50
65.6928809539
 51
125.6175774752
  0
LINE
  5
28B
330
1F
100
AcDbEntity
  8
0
  6
Continuous
 62
     8
370
    15
100
AcDbLine
 10
5020.3884168155
 20
4605.2670801258
 30
0.0
 11
5020.3884168155
 21
4429.0107130037
 31
0.0
  0
ARC
  5
28C
330
1F
100
AcDbEntity
  8
0
  6
Continuous
 62
     8
370
    15
100
AcDbCircle
 10
5013.3537733665
 20
4227.0973618919
 30
0.0
 40
15.49599320307741
100
AcDbArc
 50
242.6989106852
 51
285.3641653372
  0
LINE
  5
28D
330
1F
100
AcDbEntity
  8
0
  6
Continuous
 62
     8
370
    15
100
AcDbLine
 10
5006.2462811918
 20
4213.3274904207
 30
0.0
 11
5006.2462811918
 21
4295.6849816775
 31
0.0
  0
LINE
  5
28E
330
1F
100
AcDbEntity
  8
0
  6
Continuous
 62
     8
370
    15
100
AcDbLine
 10
5006.2462811918
 20
4420.8466318855
 30
0.0
 11
5006.2462811918
 21
4605.2670801258
 31
0.0
  0
LINE
  5
28F
330
1F
100
AcDbEntity
  8
0
  6
Continuous
 62
     8
370
    15
100
AcDbLine
 10
5013.3173490036
 20
4617.5145288038
 30
0.0
 11
5470.9871066213
 21
4881.7216560696
 31
0.0
  0
LINE
  5
290
330
1F
100
AcDbEntity
  8
0
  6
Continuous
 62
     8
370
    15
100
AcDbLine
 10
5465.4435464688
 20
4862.1919376753
 30
0.0
 11
5020.3884168155
 21
4605.2670801258
 31
0.0
  0
LINE
  5
291
330
1F
100
AcDbEntity
  8
0
  6
Continuous
 62
     8
370
    15
100
AcDbLine
 10
5501.4029170626
 20
4988.8752173752
 30
0.0
 11
5501.2210280224
 21
4988.9802196831
 31
0.0
  0
ARC
  5
292
330
1F
100
AcDbEntity
  8
0
  6
Continuous
 62
     8
370
    15
100
AcDbCircle
 10
4932.6064025246
 20
4658.3281616628
 30
0.0
 40
5.02977235902062
100
AcDbArc
 50
54.3824225248
 51
114.3071190461
  0
ARC
  5
293
330
1F
100
AcDbEntity
  8
0
  6
Continuous
 62
     8
370
    15
100
AcDbCircle
 10
4930.540173698
 20
4654.7506306042
 30
0.0
 40
5.029392784937635
100
AcDbArc
 50
185.6947992512
 51
245.6253417064
  0
ARC
  5
294
330
1F
100
AcDbEntity
  8
0
  6
Continuous
 62
     8
370
    15
100
AcDbCircle
 10
4930.540173698
 20
4262.811040899
 30
0.0
 40
5.029392784938254
100
AcDbArc
 50
185.6947992512
 51
245.6253417064
  0
ARC
  5
295
330
1F
100
AcDbEntity
  8
0
  6
Continuous
 62
     8
370
    15
100
AcDbCircle
 10
5498.2918274739
 20
4984.8914063919
 30
0.0
 40
5.029772359025594
100
AcDbArc
 50
54.3824225249
 51
114.3071190461
  0
ARC
  5
296
330
1F
100
AcDbEntity
  8
0
  6
Continuous
 62
     8
370
    15
100
AcDbCircle
 10
5011.0031367552
 20
4212.7218501367
 30
0.0
 40
4.795255468207261
100
AcDbArc
 50
172.744170468
 51
235.9436491386
  0
ARC
  5
297
330
1F
100
AcDbEntity
  8
0
  6
Continuous
 62
     8
370
    15
100
AcDbCircle
 10
4933.3645542847
 20
4257.6890691974
 30
0.0
 40
4.929779299960733
100
AcDbArc
 50
173.7011524812
 51
234.9866671255
  0
LINE
  5
298
330
1F
100
AcDbEntity
  8
0
  6
Continuous
 62
     8
370
    15
100
AcDbLine
 10
5501.2210280224
 20
4988.9802196831
 30
0.0
 11
5501.4724568354
 21
4989.1202029338
 31
0.0
  0
ARC
  5
299
330
1F
100
AcDbEntity
  8
0
  6
Continuous
 62
     8
370
    15
100
AcDbCircle
 10
5646.2212982442
 20
4053.6512937701
 30
0.0
 40
15.50465208297916
100
AcDbArc
 50
242.6864999033
 51
287.1543309399
  0
ARC
  5
29A
330
1F
100
AcDbEntity
  8
0
  6
Continuous
 62
     8
370
    15
100
AcDbCircle
 10
5637.8072300992
 20
4039.0749385553
 30
0.0
 40
15.50203052024581
100
AcDbArc
 50
12.843276148
 51
57.3181546135
  0
ARC
  5
29B
330
1F
100
AcDbEntity
  8
0
  6
Continuous
 62
     8
370
    15
100
AcDbCircle
 10
5646.2143425285
 20
3947.4948346009
 30
0.0
 40
15.49599320308067
100
AcDbArc
 50
242.6989106852
 51
285.3641653371
  0
ARC
  5
29C
330
1F
100
AcDbEntity
  8
0
  6
Continuous
 62
     8
370
    15
100
AcDbCircle
 10
6030.2533802712
 20
4265.6373316824
 30
0.0
 40
15.49331742337692
100
AcDbArc
 50
14.6347164038
 51
57.305771306
  0
ARC
  5
29D
330
1F
100
AcDbEntity
  8
0
  6
Continuous
 62
     8
370
    15
100
AcDbCircle
 10
5643.8637059091
 20
3933.1193228419
 30
0.0
 40
4.795255460614195
100
AcDbArc
 50
172.7441704122
 51
235.9436491944
  0
ARC
  5
29E
330
1F
100
AcDbEntity
  8
0
  6
Continuous
 62
     8
370
    15
100
AcDbCircle
 10
5007.4676028455
 20
4300.5029731641
 30
0.0
 40
4.795255464686326
100
AcDbArc
 50
172.7441704421
 51
235.9436491645
  0
ARC
  5
29F
330
1F
100
AcDbEntity
  8
0
  6
Continuous
 62
     8
370
    15
100
AcDbCircle
 10
6041.5513822726
 20
4274.5871550923
 30
0.0
 40
5.02977235902439
100
AcDbArc
 50
65.6928809539
 51
125.6175774752
  0
ARC
  5
2A0
330
1F
100
AcDbEntity
  8
0
  6
Continuous
 62
     8
370
    15
100
AcDbCircle
 10
5405.1552792047
 20
4641.9708054125
 30
0.0
 40
5.029772359022652
100
AcDbArc
 50
65.6928809539
 51
125.6175774752
  0
ARC
  5
2A1
330
1F
100
AcDbEntity
  8
0
  6
Continuous
 62
     8
370
    15
100
AcDbCircle
 10
5006.8526145492
 20
4415.4175543817
 30
0.0
 40
5.029772359016021
100
AcDbArc
 50
54.3824225248
 51
114.3071190461
  0
ARC
  5
2A2
330
1F
100
AcDbEntity
  8
0
  6
Continuous
 62
     8
370
    15
100
AcDbCircle
 10
5004.7863857226
 20
4411.840023323
 30
0.0
 40
5.029392784936432
100
AcDbArc
 50
185.6947992512
 51
245.6253417064
  0
ARC
  5
2A3
330
1F
100
AcDbEntity
  8
0
  6
Continuous
 62
     8
370
    15
100
AcDbCircle
 10
5004.7863857226
 20
4305.6897177779
 30
0.0
 40
5.029392784935358
100
AcDbArc
 50
185.6947992512
 51
245.6253417064
  0
ARC
  5
2A4
330
1F
100
AcDbEntity
  8
0
  6
Continuous
 62
     8
370
    15
100
AcDbCircle
 10
5399.2968781077
 20
4641.9708054125
 30
0.0
 40
5.029772359020635
100
AcDbArc
 50
54.3824225248
 51
114.3071190461
  0
LINE
  5
2A5
330
1F
100
AcDbEntity
  8
0
  6
Continuous
 62
     8
370
    15
100
AcDbLine
 10
6812.6412553821
 20
4265.9513134568
 30
0.0
 11
6770.2580012111
 21
4116.6369746886
 31
0.0
  0
LINE
  5
2A6
330
1F
100
AcDbEntity
  8
0
  6
Continuous
 62
     8
370
    15
100
AcDbLine
 10
6887.150319148
 20
4184.1174734708
 30
0.0
 11
6887.150319148
 21
4275.2348907223
 31
0.0
  0
ARC
  5
2A7
330
1F
100
AcDbEntity
  8
0
  6
Continuous
 62
     8
370
    15
100
AcDbCircle
 10
6321.2450090211
 20
3551.6338328309
 30
0.0
 40
13.9285145447393
100
AcDbArc
 50
154.5936009165
 51
178.2815741268
  0
ARC
  5
2A8
330
1F
100
AcDbEntity
  8
0
  6
Continuous
 62
     8
370
    15
100
AcDbCircle
 10
6305.6092050071
 20
3551.2437793737
 30
0.0
 40
15.81799542293836
100
AcDbArc
 50
35.192692894
 51
44.5931413984
  0
ARC
  5
2A9
330
1F
100
AcDbEntity
  8
0
  6
Continuous
 62
     8
370
    15
100
AcDbCircle
 10
6314.4605182744
 20
3566.1108974339
 30
0.0
 40
15.76749174392976
100
AcDbArc
 50
243.0837035351
 51
284.9793724872
  0
ARC
  5
2AA
330
1F
100
AcDbEntity
  8
0
  6
Continuous
 62
     8
370
    15
100
AcDbCircle
 10
6314.4605182744
 20
3476.2914081264
 30
0.0
 40
15.76749174393138
100
AcDbArc
 50
243.0837035351
 51
284.9793724872
  0
LINE
  5
2AB
330
1F
100
AcDbEntity
  8
0
  6
Continuous
 62
     8
370
    15
100
AcDbLine
 10
6307.322758575
 20
3552.0515168512
 30
0.0
 11
6303.1791370094
 21
3554.4435786646
 31
0.0
  0
LINE
  5
2AC
330
1F
100
AcDbEntity
  8
0
  6
Continuous
 62
     8
370
    15
100
AcDbLine
 10
5020.3884168155
 20
4287.5209005593
 30
0.0
 11
5020.3884168155
 21
4205.1634093024
 31
0.0
  0
LINE
  5
2AD
330
1F
100
AcDbEntity
  8
0
  6
Continuous
 62
     8
370
    15
100
AcDbLine
 10
6752.8203793257
 20
4106.5704498462
 30
0.0
 11
6798.9869084418
 21
4269.2130997092
 31
0.0
  0
LINE
  5
2AE
330
1F
100
AcDbEntity
  8
0
  6
Continuous
 62
     8
370
    15
100
AcDbLine
 10
5409.7849351515
 20
4651.8601173223
 30
0.0
 11
6553.5885348525
 21
3991.5563541757
 31
0.0
  0
ARC
  5
2AF
330
1F
100
AcDbEntity
  8
0
  6
Continuous
 62
     8
370
    15
100
AcDbCircle
 10
6312.0796141344
 20
3461.6263872579
 30
0.0
 40
4.79525546441333
100
AcDbArc
 50
172.7441704401
 51
235.9436491665
  0
ARC
  5
2B0
330
1F
100
AcDbEntity
  8
0
  6
Continuous
 62
     8
370
    15
100
AcDbCircle
 10
5025.2884358352
 20
4204.6225419272
 30
0.0
 40
4.929779296399024
100
AcDbArc
 50
173.7011524566
 51
234.98666715
  0
LWPOLYLINE
  5
2B1
330
1F
100
AcDbEntity
  8
0
  6
Continuous
 62
     8
370
    15
100
AcDbPolyline
 90
       23
 70
   128
 43
0.0
 10
6279.8646558445
 20
3369.7898528385
 10
6279.9233496064
 20
3369.2627438664
 10
6280.3262225401
 20
3367.8607061858
 10
6281.0784184683
 20
3366.5074724915
 10
6282.1639056409
 20
3365.2318846105
 10
6283.5595487832
 20
3364.0611294836
 10
6285.2356021848
 20
3363.020159724
 10
6287.1563436773
 20
3362.1311617947
 10
6289.2808359904
 20
3361.4130831431
 10
6291.563799259
 20
3360.881228369
 10
6293.9565760845
 20
3360.5469330336
 10
6296.4081685831
 20
3360.4173220615
 10
6298.8663253171
 20
3360.4951578855
 10
6301.2786549433
 20
3360.7787815703
 10
6303.5937428441
 20
3361.2621481694
 10
6305.76224694
 20
3361.9349555629
 10
6307.7379493313
 20
3362.7828640294
 10
6309.4787413514
 20
3363.7878018719
 10
6310.9475210408
 20
3364.9283505851
 10
6312.1129839104
 20
3366.1802013533
 10
6312.9502901425
 20
3367.5166731508
 10
6313.4415940086
 20
3368.9092814015
 10
6313.5676578699
 20
3369.7898528385
  0
ARC
  5
2B2
330
1F
100
AcDbEntity
  8
0
  6
Continuous
 62
     8
370
    15
100
AcDbCircle
 10
6885.0746807112
 20
4279.8159950504
 30
0.0
 40
5.02939278494305
100
AcDbArc
 50
294.3746582936
 51
354.3052007488
  0
ARC
  5
2B3
330
1F
100
AcDbEntity
  8
0
  6
Continuous
 62
     8
370
    15
100
AcDbCircle
 10
6883.2376999818
 20
4284.6518376559
 30
0.0
 40
3.801225101497845
100
AcDbArc
 50
61.0297322225
 51
98.7410233114
  0
ARC
  5
2B4
330
1F
100
AcDbEntity
  8
0
  6
Continuous
 62
     8
370
    15
100
AcDbCircle
 10
5596.3033582222
 20
5027.5832194146
 30
0.0
 40
3.80122510150713
100
AcDbArc
 50
61.0297322225
 51
98.7410233114
  0
LINE
  5
2B5
330
1F
100
AcDbEntity
  8
0
  6
Continuous
 62
     8
370
    15
100
AcDbLine
 10
6550.5195446496
 20
3989.784663843
 30
0.0
 11
5409.2971464681
 21
4648.59833107
 31
0.0
  0
LINE
  5
2B6
330
1F
100
AcDbEntity
  8
0
  6
Continuous
 62
     8
370
    15
100
AcDbLine
 10
5409.2971464681
 20
4648.59833107
 30
0.0
 11
5409.2971464681
 21
4645.3588626367
 31
0.0
  0
ARC
  5
2B7
330
1F
100
AcDbEntity
  8
0
  6
Continuous
 62
     8
370
    15
100
AcDbCircle
 10
5022.4640552523
 20
4209.7445136305
 30
0.0
 40
5.02939278493801
100
AcDbArc
 50
185.6947992512
 51
245.6253417064
  0
LWPOLYLINE
  5
2B8
330
1F
100
AcDbEntity
  8
0
  6
Continuous
 62
     8
370
    15
100
AcDbPolyline
 90
        6
 70
   128
 43
0.0
 10
5409.7849351515
 20
4651.8601173223
 10
5408.5319341175
 20
4652.6722448859
 10
5407.5800769356
 20
4653.4846847558
 10
5406.9659429434
 20
4654.2662153232
 10
5406.7131329658
 20
4654.9868028069
 10
5406.7482581382
 20
4655.4110206052
  0
LWPOLYLINE
  5
2B9
330
1F
100
AcDbEntity
  8
0
  6
Continuous
 62
     8
370
    15
100
AcDbPolyline
 90
        6
 70
   128
 43
0.0
 10
5512.0525666822
 20
5012.1444814678
 10
5510.7995656483
 20
5012.9566090315
 10
5509.8477084664
 20
5013.7690489013
 10
5509.2335744741
 20
5014.5505794688
 10
5508.9807644965
 20
5015.2711669524
 10
5509.015889669
 20
5015.6953847507
  0
LWPOLYLINE
  5
2BA
330
1F
100
AcDbEntity
  8
0
  6
Continuous
 62
     8
370
    15
100
AcDbPolyline
 90
       23
 70
   128
 43
0.0
 10
5077.7831278274
 20
4063.7367478878
 10
5077.8418215893
 20
4063.2096389157
 10
5078.244694523
 20
4061.8076012351
 10
5078.9968904512
 20
4060.4543675408
 10
5080.0823776238
 20
4059.1787796598
 10
5081.4780207661
 20
4058.0080245329
 10
5083.1540741677
 20
4056.9670547733
 10
5085.0748156602
 20
4056.078056844
 10
5087.1993079733
 20
4055.3599781924
 10
5089.4822712418
 20
4054.8281234183
 10
5091.8750480673
 20
4054.4938280829
 10
5094.326640566
 20
4054.3642171108
 10
5096.7847972999
 20
4054.4420529348
 10
5099.1971269262
 20
4054.7256766196
 10
5101.512214827
 20
4055.2090432187
 10
5103.6807189229
 20
4055.8818506122
 10
5105.6564213141
 20
4056.7297590787
 10
5107.3972133342
 20
4057.7346969212
 10
5108.8659930236
 20
4058.8752456344
 10
5110.0314558932
 20
4060.1270964026
 10
5110.8687621254
 20
4061.4635682001
 10
5111.3600659915
 20
4062.8561764508
 10
5111.4861298528
 20
4063.7367478878
  0
ARC
  5
2BB
330
1F
100
AcDbEntity
  8
0
  6
Continuous
 62
     8
370
    15
100
AcDbCircle
 10
5518.0869457291
 20
5016.8652599388
 30
0.0
 40
6.061859410414911
100
AcDbArc
 50
58.916228458
 51
96.5122139057
  0
ARC
  5
2BC
330
1F
100
AcDbEntity
  8
0
  6
Continuous
 62
     8
370
    15
100
AcDbCircle
 10
5592.596009495
 20
5026.1488372042
 30
0.0
 40
6.061859410408315
100
AcDbArc
 50
58.916228458
 51
96.5122139058
  0
ARC
  5
2BD
330
1F
100
AcDbEntity
  8
0
  6
Continuous
 62
     8
370
    15
100
AcDbCircle
 10
5411.3727849049
 20
4653.1794353981
 30
0.0
 40
5.029392784933649
100
AcDbArc
 50
185.6947992512
 51
245.6253417065
  0
LINE
  5
2BE
330
1F
100
AcDbEntity
  8
0
  6
Continuous
 62
     8
370
    15
100
AcDbLine
 10
6296.7161568572
 20
3676.5749859142
 30
0.0
 11
6318.5359620106
 21
3689.1712913094
 31
0.0
  0
LINE
  5
2BF
330
1F
100
AcDbEntity
  8
0
  6
Continuous
 62
     8
370
    15
100
AcDbLine
 10
6318.5359620106
 20
3672.8418020723
 30
0.0
 11
6303.7872246691
 21
3664.3275372363
 31
0.0
  0
LINE
  5
2C0
330
1F
100
AcDbEntity
  8
0
  6
Continuous
 62
     8
370
    15
100
AcDbLine
 10
6303.7872246691
 20
3558.1772316911
 30
0.0
 11
6318.5359620106
 21
3566.6914965272
 31
0.0
  0
LINE
  5
2C1
330
1F
100
AcDbEntity
  8
0
  6
Continuous
 62
     8
370
    15
100
AcDbLine
 10
6544.785183094
 20
3986.4742873803
 30
0.0
 11
6052.7643173479
 21
4270.5118872653
 31
0.0
  0
ARC
  5
2C2
330
1F
100
AcDbEntity
  8
0
  6
Continuous
 62
     8
370
    15
100
AcDbCircle
 10
6298.8872056431
 20
3557.6363643187
 30
0.0
 40
4.929779302289108
100
AcDbArc
 50
305.0133328906
 51
6.2988475028
  0
ARC
  5
2C3
330
1F
100
AcDbEntity
  8
0
  6
Continuous
 62
     8
370
    15
100
AcDbCircle
 10
6294.4019446069
 20
3557.5715914063
 30
0.0
 40
4.795255466446165
100
AcDbArc
 50
172.744170455
 51
235.9436491516
  0
ARC
  5
2C4
330
1F
100
AcDbEntity
  8
0
  6
Continuous
 62
     8
370
    15
100
AcDbCircle
 10
5658.1490050012
 20
3925.0200146379
 30
0.0
 40
4.92977930023743
100
AcDbArc
 50
173.7011524831
 51
234.9866671236
  0
ARC
  5
2C5
330
1F
100
AcDbEntity
  8
0
  6
Continuous
 62
     8
370
    15
100
AcDbCircle
 10
6055.6935178964
 20
4266.4230739741
 30
0.0
 40
5.029772359018134
100
AcDbArc
 50
65.6928809539
 51
125.6175774752
  0
ARC
  5
2C6
330
1F
100
AcDbEntity
  8
0
  6
Continuous
 62
     8
370
    15
100
AcDbCircle
 10
5657.3908532408
 20
4039.8698229433
 30
0.0
 40
5.029772359017719
100
AcDbArc
 50
54.3824225248
 51
114.3071190461
  0
ARC
  5
2C7
330
1F
100
AcDbEntity
  8
0
  6
Continuous
 62
     8
370
    15
100
AcDbCircle
 10
5655.3246244142
 20
4036.2922918846
 30
0.0
 40
5.029392784943004
100
AcDbArc
 50
185.6947992512
 51
245.6253417064
  0
ARC
  5
2C8
330
1F
100
AcDbEntity
  8
0
  6
Continuous
 62
     8
370
    15
100
AcDbCircle
 10
5655.3246244142
 20
3930.1419863395
 30
0.0
 40
5.029392784940457
100
AcDbArc
 50
185.6947992512
 51
245.6253417064
  0
ARC
  5
2C9
330
1F
100
AcDbEntity
  8
0
  6
Continuous
 62
     8
370
    15
100
AcDbCircle
 10
6049.8351167994
 20
4266.4230739741
 30
0.0
 40
5.029772359020995
100
AcDbArc
 50
54.3824225248
 51
114.3071190461
  0
ENDSEC
  0
SECTION
  2
OBJECTS
  0
DICTIONARY
  5
C
330
0
100
AcDbDictionary
281
     1
  3
ACAD_GROUP
350
D
  3
ACAD_LAYOUT
350
1A
  3
ACAD_MLINESTYLE
350
17
  3
ACAD_PLOTSETTINGS
350
19
  3
ACAD_PLOTSTYLENAME
350
E
  3
ACAD_SCALELIST
350
47
  0
DICTIONARY
  5
D
102
{ACAD_REACTORS
330
C
102
}
330
C
100
AcDbDictionary
281
     1
  0
DICTIONARY
  5
1A
102
{ACAD_REACTORS
330
C
102
}
330
C
100
AcDbDictionary
281
     1
  3
Layout1
350
1E
  3
Layout2
350
26
  3
Model
350
22
  0
DICTIONARY
  5
17
102
{ACAD_REACTORS
330
C
102
}
330
C
100
AcDbDictionary
281
     1
  3
Standard
350
18
  0
DICTIONARY
  5
19
102
{ACAD_REACTORS
330
C
102
}
330
C
100
AcDbDictionary
281
     1
  0
ACDBDICTIONARYWDFLT
  5
E
102
{ACAD_REACTORS
330
C
102
}
330
C
100
AcDbDictionary
281
     1
  3
Normal
350
F
100
AcDbDictionaryWithDefault
340
F
  0
DICTIONARY
  5
47
102
{ACAD_REACTORS
330
C
102
}
330
C
100
AcDbDictionary
281
     1
  3
A0
350
48
  3
A1
350
49
  3
A2
350
4A
  3
A3
350
4B
  3
A4
350
4C
  3
A5
350
4D
  3
A6
350
4E
  3
A7
350
4F
  3
A8
350
50
  3
A9
350
51
  3
B0
350
52
  3
B1
350
53
  3
B2
350
54
  3
B3
350
55
  3
B4
350
56
  3
B5
350
57
  3
B6
350
58
  3
B7
350
59
  3
B8
350
5A
  3
B9
350
5B
  3
C0
350
5C
  3
C1
350
5D
  3
C2
350
5E
  3
C3
350
5F
  3
C4
350
60
  3
C5
350
61
  3
C6
350
62
  3
C7
350
63
  3
C8
350
64
  3
C9
350
65
  3
D0
350
66
  3
D1
350
67
  3
D2
350
68
  0
LAYOUT
  5
1E
102
{ACAD_REACTORS
330
1A
102
}
330
1A
100
AcDbPlotSettings
  1

  2
none_device
  4

  6

 40
0.0
 41
0.0
 42
0.0
 43
0.0
 44
0.0
 45
0.0
 46
0.0
 47
0.0
 48
0.0
 49
0.0
140
0.0
141
0.0
142
1.0
143
1.0
 70
   688
 72
     1
 73
     0
 74
     5
  7

 75
    16
147
1.0
148
0.0
149
0.0
100
AcDbLayout
  1
Layout1
 70
     1
 71
     1
 10
0.0
 20
0.0
 11
420.0
 21
297.0
 12
0.0
 22
0.0
 32
0.0
 14
1.0000000000E+20
 24
1.0000000000E+20
 34
1.0000000000E+20
 15
-1.0000000000E+20
 25
-1.0000000000E+20
 35
-1.0000000000E+20
146
0.0
 13
0.0
 23
0.0
 33
0.0
 16
1.0
 26
0.0
 36
0.0
 17
0.0
 27
1.0
 37
0.0
 76
     0
330
1B
  0
LAYOUT
  5
26
102
{ACAD_REACTORS
330
1A
102
}
330
1A
100
AcDbPlotSettings
  1

  2
none_device
  4

  6

 40
0.0
 41
0.0
 42
0.0
 43
0.0
 44
0.0
 45
0.0
 46
0.0
 47
0.0
 48
0.0
 49
0.0
140
0.0
141
0.0
142
1.0
143
1.0
 70
   688
 72
     1
 73
     0
 74
     5
  7

 75
    16
147
1.0
148
0.0
149
0.0
100
AcDbLayout
  1
Layout2
 70
     1
 71
     2
 10
0.0
 20
0.0
 11
0.0
 21
0.0
 12
0.0
 22
0.0
 32
0.0
 14
0.0
 24
0.0
 34
0.0
 15
0.0
 25
0.0
 35
0.0
146
0.0
 13
0.0
 23
0.0
 33
0.0
 16
1.0
 26
0.0
 36
0.0
 17
0.0
 27
1.0
 37
0.0
 76
     0
330
23
  0
LAYOUT
  5
22
102
{ACAD_REACTORS
330
1A
102
}
330
1A
100
AcDbPlotSettings
  1

  2
none_device
  4
Letter_(8.50_x_11.00_Inches)
  6

 40
6.35
 41
6.35
 42
6.35000508
 43
6.35000508
 44
215.9
 45
279.4
 46
0.0
 47
0.0
 48
0.0
 49
0.0
140
0.0
141
0.0
142
1.0
143
1.0
 70
  1712
 72
     1
 73
     0
 74
     0
  7

 75
     0
147
1.0
148
0.0
149
0.0
100
AcDbLayout
  1
Model
 70
     1
 71
     0
 10
0.0
 20
0.0
 11
8400.0
 21
5940.0
 12
0.0
 22
0.0
 32
0.0
 14
0.0
 24
0.0
 34
0.0
 15
8400.0
 25
5940.0
 35
0.0
146
0.0
 13
0.0
 23
0.0
 33
0.0
 16
1.0
 26
0.0
 36
0.0
 17
0.0
 27
1.0
 37
0.0
 76
     0
330
1F
331
29
  0
MLINESTYLE
  5
18
102
{ACAD_REACTORS
330
17
102
}
330
17
100
AcDbMlineStyle
  2
Standard
 70
     0
  3

 62
   256
 51
90.0
 52
90.0
 71
     2
 49
0.5
 62
   256
  6
BYLAYER
 49
-0.5
 62
   256
  6
BYLAYER
  0
ACDBPLACEHOLDER
  5
F
102
{ACAD_REACTORS
330
E
102
}
330
E
  0
SCALE
  5
48
102
{ACAD_REACTORS
330
47
102
}
330
47
100
AcDbScale
 70
     0
300
1:1
140
1.0
141
1.0
290
     1
  0
SCALE
  5
49
102
{ACAD_REACTORS
330
47
102
}
330
47
100
AcDbScale
 70
     0
300
1:2
140
1.0
141
2.0
290
     0
  0
SCALE
  5
4A
102
{ACAD_REACTORS
330
47
102
}
330
47
100
AcDbScale
 70
     0
300
1:4
140
1.0
141
4.0
290
     0
  0
SCALE
  5
4B
102
{ACAD_REACTORS
330
47
102
}
330
47
100
AcDbScale
 70
     0
300
1:5
140
1.0
141
5.0
290
     0
  0
SCALE
  5
4C
102
{ACAD_REACTORS
330
47
102
}
330
47
100
AcDbScale
 70
     0
300
1:8
140
1.0
141
8.0
290
     0
  0
SCALE
  5
4D
102
{ACAD_REACTORS
330
47
102
}
330
47
100
AcDbScale
 70
     0
300
1:10
140
1.0
141
10.0
290
     0
  0
SCALE
  5
4E
102
{ACAD_REACTORS
330
47
102
}
330
47
100
AcDbScale
 70
     0
300
1:16
140
1.0
141
16.0
290
     0
  0
SCALE
  5
4F
102
{ACAD_REACTORS
330
47
102
}
330
47
100
AcDbScale
 70
     0
300
1:20
140
1.0
141
20.0
290
     0
  0
SCALE
  5
50
102
{ACAD_REACTORS
330
47
102
}
330
47
100
AcDbScale
 70
     0
300
1:30
140
1.0
141
30.0
290
     0
  0
SCALE
  5
51
102
{ACAD_REACTORS
330
47
102
}
330
47
100
AcDbScale
 70
     0
300
1:40
140
1.0
141
40.0
290
     0
  0
SCALE
  5
52
102
{ACAD_REACTORS
330
47
102
}
330
47
100
AcDbScale
 70
     0
300
1:50
140
1.0
141
50.0
290
     0
  0
SCALE
  5
53
102
{ACAD_REACTORS
330
47
102
}
330
47
100
AcDbScale
 70
     0
300
1:100
140
1.0
141
100.0
290
     0
  0
SCALE
  5
54
102
{ACAD_REACTORS
330
47
102
}
330
47
100
AcDbScale
 70
     0
300
2:1
140
2.0
141
1.0
290
     0
  0
SCALE
  5
55
102
{ACAD_REACTORS
330
47
102
}
330
47
100
AcDbScale
 70
     0
300
4:1
140
4.0
141
1.0
290
     0
  0
SCALE
  5
56
102
{ACAD_REACTORS
330
47
102
}
330
47
100
AcDbScale
 70
     0
300
8:1
140
8.0
141
1.0
290
     0
  0
SCALE
  5
57
102
{ACAD_REACTORS
330
47
102
}
330
47
100
AcDbScale
 70
     0
300
10:1
140
10.0
141
1.0
290
     0
  0
SCALE
  5
58
102
{ACAD_REACTORS
330
47
102
}
330
47
100
AcDbScale
 70
     0
300
100:1
140
100.0
141
1.0
290
     0
  0
SCALE
  5
59
102
{ACAD_REACTORS
330
47
102
}
330
47
100
AcDbScale
 70
     0
300
1/128" = 1'-0"
140
0.0078125
141
12.0
290
     0
  0
SCALE
  5
5A
102
{ACAD_REACTORS
330
47
102
}
330
47
100
AcDbScale
 70
     0
300
1/64" = 1'-0"
140
0.015625
141
12.0
290
     0
  0
SCALE
  5
5B
102
{ACAD_REACTORS
330
47
102
}
330
47
100
AcDbScale
 70
     0
300
1/32" = 1'-0"
140
0.03125
141
12.0
290
     0
  0
SCALE
  5
5C
102
{ACAD_REACTORS
330
47
102
}
330
47
100
AcDbScale
 70
     0
300
1/16" = 1'-0"
140
0.0625
141
12.0
290
     0
  0
SCALE
  5
5D
102
{ACAD_REACTORS
330
47
102
}
330
47
100
AcDbScale
 70
     0
300
3/32" = 1'-0"
140
0.09375
141
12.0
290
     0
  0
SCALE
  5
5E
102
{ACAD_REACTORS
330
47
102
}
330
47
100
AcDbScale
 70
     0
300
1/8" = 1'-0"
140
0.125
141
12.0
290
     0
  0
SCALE
  5
5F
102
{ACAD_REACTORS
330
47
102
}
330
47
100
AcDbScale
 70
     0
300
3/16" = 1'-0"
140
0.1875
141
12.0
290
     0
  0
SCALE
  5
60
102
{ACAD_REACTORS
330
47
102
}
330
47
100
AcDbScale
 70
     0
300
1/4" = 1'-0"
140
0.25
141
12.0
290
     0
  0
SCALE
  5
61
102
{ACAD_REACTORS
330
47
102
}
330
47
100
AcDbScale
 70
     0
300
3/8" = 1'-0"
140
0.375
141
12.0
290
     0
  0
SCALE
  5
62
102
{ACAD_REACTORS
330
47
102
}
330
47
100
AcDbScale
 70
     0
300
1/2" = 1'-0"
140
0.5
141
12.0
290
     0
  0
SCALE
  5
63
102
{ACAD_REACTORS
330
47
102
}
330
47
100
AcDbScale
 70
     0
300
3/4" = 1'-0"
140
0.75
141
12.0
290
     0
  0
SCALE
  5
64
102
{ACAD_REACTORS
330
47
102
}
330
47
100
AcDbScale
 70
     0
300
1" = 1'-0"
140
1.0
141
12.0
290
     0
  0
SCALE
  5
65
102
{ACAD_REACTORS
330
47
102
}
330
47
100
AcDbScale
 70
     0
300
1-1/2" = 1'-0"
140
1.5
141
12.0
290
     0
  0
SCALE
  5
66
102
{ACAD_REACTORS
330
47
102
}
330
47
100
AcDbScale
 70
     0
300
3" = 1'-0"
140
3.0
141
12.0
290
     0
  0
SCALE
  5
67
102
{ACAD_REACTORS
330
47
102
}
330
47
100
AcDbScale
 70
     0
300
6" = 1'-0"
140
6.0
141
12.0
290
     0
  0
SCALE
  5
68
102
{ACAD_REACTORS
330
47
102
}
330
47
100
AcDbScale
 70
     0
300
1'-0" = 1'-0"
140
12.0
141
12.0
290
     0
  0
ENDSEC
  0
EOF
